  0
SECTION
  2
HEADER
  9
$ACADVER
  1
AC1015
  9
$ACADMAINTVER
 70
     6
  9
$DWGCODEPAGE
  3
ANSI_1254
  9
$INSBASE
 10
0.0
 20
0.0
 30
0.0
  9
$EXTMIN
 10
0.0
 20
0.0
 30
0.0
  9
$EXTMAX
 10
279.4
 20
215.9
 30
0.0
  9
$LIMMIN
 10
0.0
 20
0.0
  9
$LIMMAX
 10
279.4
 20
215.9
  9
$ORTHOMODE
 70
     0
  9
$REGENMODE
 70
     1
  9
$FILLMODE
 70
     1
  9
$QTEXTMODE
 70
     0
  9
$MIRRTEXT
 70
     1
  9
$LTSCALE
 40
1.0
  9
$ATTMODE
 70
     1
  9
$TEXTSIZE
 40
3.5
  9
$TRACEWID
 40
1.0
  9
$TEXTSTYLE
  7
Standard
  9
$CLAYER
  8
0
  9
$CELTYPE
  6
ByLayer
  9
$CECOLOR
 62
   256
  9
$CELTSCALE
 40
1.0
  9
$DISPSILH
 70
     0
  9
$DIMSCALE
 40
1.0
  9
$DIMASZ
 40
3.5
  9
$DIMEXO
 40
1.0
  9
$DIMDLI
 40
3.75
  9
$DIMRND
 40
0.0
  9
$DIMDLE
 40
0.0
  9
$DIMEXE
 40
1.0
  9
$DIMTP
 40
0.0
  9
$DIMTM
 40
0.0
  9
$DIMTXT
 40
3.5
  9
$DIMCEN
 40
2.5
  9
$DIMTSZ
 40
0.0
  9
$DIMTOL
 70
     0
  9
$DIMLIM
 70
     0
  9
$DIMTIH
 70
     1
  9
$DIMTOH
 70
     1
  9
$DIMSE1
 70
     0
  9
$DIMSE2
 70
     0
  9
$DIMTAD
 70
     1
  9
$DIMZIN
 70
     0
  9
$DIMBLK
  1

  9
$DIMASO
 70
     1
  9
$DIMSHO
 70
     1
  9
$DIMPOST
  1

  9
$DIMAPOST
  1

  9
$DIMALT
 70
     0
  9
$DIMALTD
 70
     3
  9
$DIMALTF
 40
0.0393700787
  9
$DIMLFAC
 40
1.0
  9
$DIMTOFL
 70
     1
  9
$DIMTVP
 40
0.0
  9
$DIMTIX
 70
     0
  9
$DIMSOXD
 70
     0
  9
$DIMSAH
 70
     0
  9
$DIMBLK1
  1

  9
$DIMBLK2
  1

  9
$DIMSTYLE
  2
ISO-25
  9
$DIMCLRD
 70
     0
  9
$DIMCLRE
 70
     0
  9
$DIMCLRT
 70
     0
  9
$DIMTFAC
 40
1.0
  9
$DIMGAP
 40
1.524
  9
$DIMJUST
 70
     0
  9
$DIMSD1
 70
     0
  9
$DIMSD2
 70
     0
  9
$DIMTOLJ
 70
     0
  9
$DIMTZIN
 70
     0
  9
$DIMALTZ
 70
     0
  9
$DIMALTTZ
 70
     0
  9
$DIMUPT
 70
     0
  9
$DIMDEC
 70
     2
  9
$DIMTDEC
 70
     2
  9
$DIMALTU
 70
     2
  9
$DIMALTTD
 70
     3
  9
$DIMTXSTY
  7
Standard
  9
$DIMAUNIT
 70
     0
  9
$DIMADEC
 70
     2
  9
$DIMALTRND
 40
0.0
  9
$DIMAZIN
 70
     0
  9
$DIMDSEP
 70
    44
  9
$DIMATFIT
 70
     3
  9
$DIMFRAC
 70
     0
  9
$DIMLDRBLK
  1

  9
$DIMLUNIT
 70
     2
  9
$DIMLWD
 70
    -2
  9
$DIMLWE
 70
    -2
  9
$DIMTMOVE
 70
     0
  9
$LUNITS
 70
     2
  9
$LUPREC
 70
     2
  9
$SKETCHINC
 40
1.0
  9
$FILLETRAD
 40
10.0
  9
$AUNITS
 70
     0
  9
$AUPREC
 70
     2
  9
$MENU
  1
.
  9
$ELEVATION
 40
0.0
  9
$PELEVATION
 40
0.0
  9
$THICKNESS
 40
0.0
  9
$LIMCHECK
 70
     0
  9
$CHAMFERA
 40
0.0
  9
$CHAMFERB
 40
0.0
  9
$CHAMFERC
 40
0.0
  9
$CHAMFERD
 40
0.0
  9
$SKPOLY
 70
     0
  9
$TDCREATE
 40
2460616.666834699
  9
$TDUCREATE
 40
2460616.541834699
  9
$TDUPDATE
 40
2460616.666834884
  9
$TDUUPDATE
 40
2460616.541834884
  9
$TDINDWG
 40
0.0000000116
  9
$TDUSRTIMER
 40
0.0000000116
  9
$USRTIMER
 70
     1
  9
$ANGBASE
 50
0.0
  9
$ANGDIR
 70
     0
  9
$PDMODE
 70
     0
  9
$PDSIZE
 40
-1.0
  9
$PLINEWID
 40
0.0
  9
$SPLFRAME
 70
     0
  9
$SPLINETYPE
 70
     6
  9
$SPLINESEGS
 70
     8
  9
$HANDSEED
  5
10F
  9
$SURFTAB1
 70
     6
  9
$SURFTAB2
 70
     6
  9
$SURFTYPE
 70
     6
  9
$SURFU
 70
     6
  9
$SURFV
 70
     6
  9
$UCSBASE
  2

  9
$UCSNAME
  2

  9
$UCSORG
 10
0.0
 20
0.0
 30
0.0
  9
$UCSXDIR
 10
1.0
 20
0.0
 30
0.0
  9
$UCSYDIR
 10
0.0
 20
1.0
 30
0.0
  9
$UCSORTHOREF
  2

  9
$UCSORTHOVIEW
 70
     0
  9
$UCSORGTOP
 10
0.0
 20
0.0
 30
0.0
  9
$UCSORGBOTTOM
 10
0.0
 20
0.0
 30
0.0
  9
$UCSORGLEFT
 10
0.0
 20
0.0
 30
0.0
  9
$UCSORGRIGHT
 10
0.0
 20
0.0
 30
0.0
  9
$UCSORGFRONT
 10
0.0
 20
0.0
 30
0.0
  9
$UCSORGBACK
 10
0.0
 20
0.0
 30
0.0
  9
$PUCSBASE
  2

  9
$PUCSNAME
  2

  9
$PUCSORG
 10
0.0
 20
0.0
 30
0.0
  9
$PUCSXDIR
 10
1.0
 20
0.0
 30
0.0
  9
$PUCSYDIR
 10
0.0
 20
1.0
 30
0.0
  9
$PUCSORTHOREF
  2

  9
$PUCSORTHOVIEW
 70
     0
  9
$PUCSORGTOP
 10
0.0
 20
0.0
 30
0.0
  9
$PUCSORGBOTTOM
 10
0.0
 20
0.0
 30
0.0
  9
$PUCSORGLEFT
 10
0.0
 20
0.0
 30
0.0
  9
$PUCSORGRIGHT
 10
0.0
 20
0.0
 30
0.0
  9
$PUCSORGFRONT
 10
0.0
 20
0.0
 30
0.0
  9
$PUCSORGBACK
 10
0.0
 20
0.0
 30
0.0
  9
$USERI1
 70
     0
  9
$USERI2
 70
     0
  9
$USERI3
 70
     0
  9
$USERI4
 70
     0
  9
$USERI5
 70
     0
  9
$USERR1
 40
0.0
  9
$USERR2
 40
0.0
  9
$USERR3
 40
0.0
  9
$USERR4
 40
0.0
  9
$USERR5
 40
0.0
  9
$WORLDVIEW
 70
     1
  9
$SHADEDGE
 70
     3
  9
$SHADEDIF
 70
    70
  9
$TILEMODE
 70
     1
  9
$MAXACTVP
 70
    64
  9
$PINSBASE
 10
0.0
 20
0.0
 30
0.0
  9
$PLIMCHECK
 70
     0
  9
$PEXTMIN
 10
1.0000000000E+20
 20
1.0000000000E+20
 30
1.0000000000E+20
  9
$PEXTMAX
 10
-1.0000000000E+20
 20
-1.0000000000E+20
 30
-1.0000000000E+20
  9
$PLIMMIN
 10
0.0
 20
0.0
  9
$PLIMMAX
 10
420.0
 20
297.0
  9
$UNITMODE
 70
     0
  9
$VISRETAIN
 70
     1
  9
$PLINEGEN
 70
     0
  9
$PSLTSCALE
 70
     1
  9
$TREEDEPTH
 70
  3020
  9
$CMLSTYLE
  2
Standard
  9
$CMLJUST
 70
     0
  9
$CMLSCALE
 40
20.0
  9
$PROXYGRAPHICS
 70
     1
  9
$MEASUREMENT
 70
     1
  9
$CELWEIGHT
370
    -1
  9
$ENDCAPS
280
     0
  9
$JOINSTYLE
280
     0
  9
$LWDISPLAY
290
     1
  9
$INSUNITS
 70
     4
  9
$HYPERLINKBASE
  1

  9
$STYLESHEET
  1

  9
$XEDIT
290
     1
  9
$CEPSNTYPE
380
     0
  9
$PSTYLEMODE
290
     1
  9
$FINGERPRINTGUID
  2
{7cb20fce-f996-465c-b81e-670a0ee430cd}
  9
$VERSIONGUID
  2
{FAEB1C32-E019-11D5-929B-00C0DF256EC4}
  9
$EXTNAMES
290
     1
  9
$PSVPSCALE
 40
0.0
  9
$OLESTARTUP
290
     0
  0
ENDSEC
  0
SECTION
  2
CLASSES
  0
CLASS
  1
ACDBDICTIONARYWDFLT
  2
AcDbDictionaryWithDefault
  3
ObjectDBX Classes
 90
        0
280
     0
281
     0
  0
CLASS
  1
VISUALSTYLE
  2
AcDbVisualStyle
  3
ObjectDBX Classes
 90
     4095
280
     0
281
     0
  0
CLASS
  1
MATERIAL
  2
AcDbMaterial
  3
ObjectDBX Classes
 90
     1153
280
     0
281
     0
  0
CLASS
  1
SCALE
  2
AcDbScale
  3
ObjectDBX Classes
 90
     1153
280
     0
281
     0
  0
CLASS
  1
TABLESTYLE
  2
AcDbTableStyle
  3
ObjectDBX Classes
 90
     4095
280
     0
281
     0
  0
CLASS
  1
MLEADERSTYLE
  2
AcDbMLeaderStyle
  3
ACDB_MLEADERSTYLE_CLASS
 90
     4095
280
     0
281
     0
  0
CLASS
  1
SUN
  2
AcDbSun
  3
SCENEOE
 90
     1153
280
     0
281
     0
  0
CLASS
  1
ACDBPLACEHOLDER
  2
AcDbPlaceHolder
  3
ObjectDBX Classes
 90
        0
280
     0
281
     0
  0
CLASS
  1
LAYOUT
  2
AcDbLayout
  3
ObjectDBX Classes
 90
        0
280
     0
281
     0
  0
ENDSEC
  0
SECTION
  2
TABLES
  0
TABLE
  2
VPORT
  5
8
330
0
100
AcDbSymbolTable
 70
     1
  0
VPORT
  5
29
330
8
100
AcDbSymbolTableRecord
100
AcDbViewportTableRecord
  2
*Active
 70
     0
 10
0.0
 20
0.0
 11
1.0
 21
1.0
 12
139.7
 22
107.95
 13
0.0
 23
0.0
 14
10.0
 24
10.0
 15
10.0
 25
10.0
 16
0.0
 26
0.0
 36
1.0
 17
0.0
 27
0.0
 37
0.0
 40
215.9
 41
1.2941176471
 42
50.0
 43
0.0
 44
0.0
 50
0.0
 51
0.0
 71
     0
 72
  2000
 73
     1
 74
     3
 75
     0
 76
     0
 77
     0
 78
     0
281
     0
 65
     1
110
0.0
120
0.0
130
0.0
111
1.0
121
0.0
131
0.0
112
0.0
122
1.0
132
0.0
 79
     0
146
0.0
  0
ENDTAB
  0
TABLE
  2
LTYPE
  5
5
330
0
100
AcDbSymbolTable
 70
     6
  0
LTYPE
  5
14
330
5
100
AcDbSymbolTableRecord
100
AcDbLinetypeTableRecord
  2
ByBlock
 70
     0
  3

 72
    65
 73
     0
 40
0.0
  0
LTYPE
  5
15
330
5
100
AcDbSymbolTableRecord
100
AcDbLinetypeTableRecord
  2
ByLayer
 70
     0
  3

 72
    65
 73
     0
 40
0.0
  0
LTYPE
  5
16
330
5
100
AcDbSymbolTableRecord
100
AcDbLinetypeTableRecord
  2
Continuous
 70
     0
  3
Solid line
 72
    65
 73
     0
 40
0.0
  0
LTYPE
  5
6E
330
5
100
AcDbSymbolTableRecord
100
AcDbLinetypeTableRecord
  2
HIDDEN
 70
     0
  3
Hidden __ __ __ __ __ __ __ __ __ __ __ __ __ __
 72
    65
 73
     2
 40
1.905
 49
1.27
 74
     0
 49
-0.635
 74
     0
  0
LTYPE
  5
6F
330
5
100
AcDbSymbolTableRecord
100
AcDbLinetypeTableRecord
  2
PHANTOM
 70
     0
  3
Phantom ______  __  __  ______  __  __  ______
 72
    65
 73
     6
 40
12.7
 49
6.35
 74
     0
 49
-1.27
 74
     0
 49
1.27
 74
     0
 49
-1.27
 74
     0
 49
1.27
 74
     0
 49
-1.27
 74
     0
  0
LTYPE
  5
70
330
5
100
AcDbSymbolTableRecord
100
AcDbLinetypeTableRecord
  2
CENTER
 70
     0
  3
Center ____ _ ____ _ ____ _ ____ _ ____ _ ____
 72
    65
 73
     4
 40
10.16
 49
6.35
 74
     0
 49
-1.27
 74
     0
 49
1.27
 74
     0
 49
-1.27
 74
     0
  0
LTYPE
  5
71
330
5
100
AcDbSymbolTableRecord
100
AcDbLinetypeTableRecord
  2
CENTERX2
 70
     0
  3
Center (2x) ________  __  ________  __  _____
 72
    65
 73
     4
 40
20.32
 49
12.7
 74
     0
 49
-2.54
 74
     0
 49
2.54
 74
     0
 49
-2.54
 74
     0
  0
LTYPE
  5
72
330
5
100
AcDbSymbolTableRecord
100
AcDbLinetypeTableRecord
  2
DOT2
 70
     0
  3
Dot (.5x) ........................................
 72
    65
 73
     2
 40
0.635
 49
0.0
 74
     0
 49
-0.635
 74
     0
  0
ENDTAB
  0
TABLE
  2
LAYER
  5
2
330
0
100
AcDbSymbolTable
 70
    17
  0
LAYER
  5
10
330
2
100
AcDbSymbolTableRecord
100
AcDbLayerTableRecord
  2
0
 70
     0
 62
     7
  6
Continuous
370
    -3
390
F
  0
LAYER
  5
73
330
2
100
AcDbSymbolTableRecord
100
AcDbLayerTableRecord
  2
FORMAT
 70
     0
 62
     7
  6
Continuous
370
    -3
390
F
  0
LAYER
  5
74
330
2
100
AcDbSymbolTableRecord
100
AcDbLayerTableRecord
  2
YARDIMCI_GEOMETRI
 70
     0
 62
    -6
  6
Continuous
290
     0
370
    -3
390
F
  0
LAYER
  5
75
330
2
100
AcDbSymbolTableRecord
100
AcDbLayerTableRecord
  2
SAYFA_CERCEVESI
 70
     0
 62
     7
  6
Continuous
370
    25
390
F
  0
LAYER
  5
76
330
2
100
AcDbSymbolTableRecord
100
AcDbLayerTableRecord
  2
ANTET
 70
     0
 62
     7
  6
Continuous
370
    -3
390
F
  0
LAYER
  5
77
330
2
100
AcDbSymbolTableRecord
100
AcDbLayerTableRecord
  2
OLCU
 70
     0
 62
   150
  6
Continuous
370
    -3
390
F
  0
LAYER
  5
78
330
2
100
AcDbSymbolTableRecord
100
AcDbLayerTableRecord
  2
METIN
 70
     0
 62
    96
  6
Continuous
370
    -3
390
F
  0
LAYER
  5
79
330
2
100
AcDbSymbolTableRecord
100
AcDbLayerTableRecord
  2
BALON
 70
     0
 62
     5
  6
Continuous
370
    -3
390
F
  0
LAYER
  5
7A
330
2
100
AcDbSymbolTableRecord
100
AcDbLayerTableRecord
  2
VURGU
 70
     0
 62
     7
  6
Continuous
370
    -3
390
F
  0
LAYER
  5
7B
330
2
100
AcDbSymbolTableRecord
100
AcDbLayerTableRecord
  2
SILIK
 70
     0
 62
     7
  6
Continuous
370
    -3
390
F
  0
LAYER
  5
7C
330
2
100
AcDbSymbolTableRecord
100
AcDbLayerTableRecord
  2
MODEL
 70
     0
 62
     7
  6
Continuous
370
    -3
390
F
  0
LAYER
  5
7D
330
2
100
AcDbSymbolTableRecord
100
AcDbLayerTableRecord
  2
DETAYLANDıRMA
 70
     0
 62
   190
  6
Continuous
370
    -3
390
F
  0
LAYER
  5
7E
330
2
100
AcDbSymbolTableRecord
100
AcDbLayerTableRecord
  2
TOLERANS
 70
     0
 62
   230
  6
Continuous
370
    -3
390
F
  0
LAYER
  5
7F
330
2
100
AcDbSymbolTableRecord
100
AcDbLayerTableRecord
  2
MERKEZ_CIZGILERI
 70
     0
 62
    30
  6
Continuous
370
    -3
390
F
  0
LAYER
  5
80
330
2
100
AcDbSymbolTableRecord
100
AcDbLayerTableRecord
  2
KESIT-DETAY_CIZGILERI
 70
     0
 62
     7
  6
Continuous
370
    -3
390
F
  0
LAYER
  5
81
330
2
100
AcDbSymbolTableRecord
100
AcDbLayerTableRecord
  2
\U+041E\U+0421\U+0415\U+0412\U+042B\U+0415
 70
     0
 62
     7
  6
Continuous
370
    -3
390
F
  0
LAYER
  5
82
330
2
100
AcDbSymbolTableRecord
100
AcDbLayerTableRecord
  2
\U+0412\U+041E\U+0414\U+042F\U+041D\U+042B\U+0415_\U+0417\U+041D\U+0410\U+041A\U+0418
 70
     0
 62
    11
  6
Continuous
370
    -3
390
F
  0
ENDTAB
  0
TABLE
  2
STYLE
  5
3
330
0
100
AcDbSymbolTable
 70
     1
  0
STYLE
  5
11
330
3
100
AcDbSymbolTableRecord
100
AcDbTextStyleTableRecord
  2
Standard
 70
     0
 40
0.0
 41
1.0
 50
0.0
 71
     0
 42
3.5
  3
txt
  4

  0
ENDTAB
  0
TABLE
  2
VIEW
  5
6
330
0
100
AcDbSymbolTable
 70
     0
  0
ENDTAB
  0
TABLE
  2
UCS
  5
7
330
0
100
AcDbSymbolTable
 70
     0
  0
ENDTAB
  0
TABLE
  2
APPID
  5
9
330
0
100
AcDbSymbolTable
 70
     1
  0
APPID
  5
12
330
9
100
AcDbSymbolTableRecord
100
AcDbRegAppTableRecord
  2
ACAD
 70
     0
  0
ENDTAB
  0
TABLE
  2
DIMSTYLE
  5
A
330
0
100
AcDbSymbolTable
 70
     1
100
AcDbDimStyleTable
  0
DIMSTYLE
105
27
330
A
100
AcDbSymbolTableRecord
100
AcDbDimStyleTableRecord
  2
ISO-25
 70
     0
 41
2.5
 42
0.625
 43
3.75
 44
1.25
 73
     0
 74
     0
 77
     1
 78
     8
140
2.5
141
2.5
143
0.0393700787
147
0.625
171
     3
172
     1
178
     0
271
     2
272
     2
274
     3
278
    44
283
     0
284
     8
340
11
  0
ENDTAB
  0
TABLE
  2
BLOCK_RECORD
  5
1
330
0
100
AcDbSymbolTable
 70
     4
  0
BLOCK_RECORD
  5
1F
330
1
100
AcDbSymbolTableRecord
100
AcDbBlockTableRecord
  2
*Model_Space
340
22
  0
BLOCK_RECORD
  5
1B
330
1
100
AcDbSymbolTableRecord
100
AcDbBlockTableRecord
  2
*Paper_Space
340
1E
  0
BLOCK_RECORD
  5
23
330
1
100
AcDbSymbolTableRecord
100
AcDbBlockTableRecord
  2
*Paper_Space0
340
26
  0
BLOCK_RECORD
  5
8C
330
1
100
AcDbSymbolTableRecord
100
AcDbBlockTableRecord
  2
SW_CENTERMARKSYMBOL_0
340
0
102
{BLKREFS
331
97
102
}
  0
BLOCK_RECORD
  5
DE
330
1
100
AcDbSymbolTableRecord
100
AcDbBlockTableRecord
  2
SW_CENTERMARKSYMBOL_1
340
0
102
{BLKREFS
331
E9
102
}
  0
BLOCK_RECORD
  5
EA
330
1
100
AcDbSymbolTableRecord
100
AcDbBlockTableRecord
  2
SW_CENTERMARKSYMBOL_2
340
0
102
{BLKREFS
331
F5
102
}
  0
ENDTAB
  0
ENDSEC
  0
SECTION
  2
BLOCKS
  0
BLOCK
  5
20
330
1F
100
AcDbEntity
  8
0
100
AcDbBlockBegin
  2
*Model_Space
 70
     0
 10
0.0
 20
0.0
 30
0.0
  3
*Model_Space
  1

  0
ENDBLK
  5
21
330
1F
100
AcDbEntity
  8
0
100
AcDbBlockEnd
  0
BLOCK
  5
1C
330
1B
100
AcDbEntity
 67
     1
  8
0
100
AcDbBlockBegin
  2
*Paper_Space
 70
     0
 10
0.0
 20
0.0
 30
0.0
  3
*Paper_Space
  1

  0
ENDBLK
  5
1D
330
1B
100
AcDbEntity
 67
     1
  8
0
100
AcDbBlockEnd
  0
BLOCK
  5
24
330
23
100
AcDbEntity
  8
0
100
AcDbBlockBegin
  2
*Paper_Space0
 70
     0
 10
0.0
 20
0.0
 30
0.0
  3
*Paper_Space0
  1

  0
ENDBLK
  5
25
330
23
100
AcDbEntity
  8
0
100
AcDbBlockEnd
  0
BLOCK
  5
8D
330
8C
100
AcDbEntity
  8
0
100
AcDbBlockBegin
  2
SW_CENTERMARKSYMBOL_0
 70
     0
 10
0.0
 20
0.0
 30
0.0
  3
SW_CENTERMARKSYMBOL_0
  1

  0
LINE
  5
8F
330
8C
100
AcDbEntity
  8
FORMAT
 62
     0
100
AcDbLine
 10
0.0
 20
0.0
 30
0.0
 11
0.0
 21
2.5
 31
0.0
  0
LINE
  5
90
330
8C
100
AcDbEntity
  8
FORMAT
 62
     0
100
AcDbLine
 10
0.0
 20
0.0
 30
0.0
 11
-2.5
 21
0.0
 31
0.0
  0
LINE
  5
91
330
8C
100
AcDbEntity
  8
FORMAT
 62
     0
100
AcDbLine
 10
0.0
 20
0.0
 30
0.0
 11
0.0
 21
-2.5
 31
0.0
  0
LINE
  5
92
330
8C
100
AcDbEntity
  8
FORMAT
 62
     0
100
AcDbLine
 10
0.0
 20
0.0
 30
0.0
 11
2.5
 21
0.0
 31
0.0
  0
LINE
  5
93
330
8C
100
AcDbEntity
  8
FORMAT
 62
     0
100
AcDbLine
 10
0.0
 20
5.0
 30
0.0
 11
0.0
 21
57.85
 31
0.0
  0
LINE
  5
94
330
8C
100
AcDbEntity
  8
FORMAT
 62
     0
100
AcDbLine
 10
-5.0
 20
0.0
 30
0.0
 11
-57.85
 21
0.0
 31
0.0
  0
LINE
  5
95
330
8C
100
AcDbEntity
  8
FORMAT
 62
     0
100
AcDbLine
 10
0.0
 20
-5.0
 30
0.0
 11
0.0
 21
-57.85
 31
0.0
  0
LINE
  5
96
330
8C
100
AcDbEntity
  8
FORMAT
 62
     0
100
AcDbLine
 10
5.0
 20
0.0
 30
0.0
 11
57.85
 21
0.0
 31
0.0
  0
ENDBLK
  5
8E
330
8C
100
AcDbEntity
  8
0
100
AcDbBlockEnd
  0
BLOCK
  5
DF
330
DE
100
AcDbEntity
  8
0
100
AcDbBlockBegin
  2
SW_CENTERMARKSYMBOL_1
 70
     0
 10
0.0
 20
0.0
 30
0.0
  3
SW_CENTERMARKSYMBOL_1
  1

  0
LINE
  5
E1
330
DE
100
AcDbEntity
  8
FORMAT
 62
     0
100
AcDbLine
 10
0.0
 20
0.0
 30
0.0
 11
0.0
 21
2.5
 31
0.0
  0
LINE
  5
E2
330
DE
100
AcDbEntity
  8
FORMAT
 62
     0
100
AcDbLine
 10
0.0
 20
0.0
 30
0.0
 11
-2.5
 21
0.0
 31
0.0
  0
LINE
  5
E3
330
DE
100
AcDbEntity
  8
FORMAT
 62
     0
100
AcDbLine
 10
0.0
 20
0.0
 30
0.0
 11
0.0
 21
-2.5
 31
0.0
  0
LINE
  5
E4
330
DE
100
AcDbEntity
  8
FORMAT
 62
     0
100
AcDbLine
 10
0.0
 20
0.0
 30
0.0
 11
2.5
 21
0.0
 31
0.0
  0
LINE
  5
E5
330
DE
100
AcDbEntity
  8
FORMAT
 62
     0
100
AcDbLine
 10
0.0
 20
5.0
 30
0.0
 11
0.0
 21
9.5
 31
0.0
  0
LINE
  5
E6
330
DE
100
AcDbEntity
  8
FORMAT
 62
     0
100
AcDbLine
 10
-5.0
 20
0.0
 30
0.0
 11
-9.5
 21
0.0
 31
0.0
  0
LINE
  5
E7
330
DE
100
AcDbEntity
  8
FORMAT
 62
     0
100
AcDbLine
 10
0.0
 20
-5.0
 30
0.0
 11
0.0
 21
-9.5
 31
0.0
  0
LINE
  5
E8
330
DE
100
AcDbEntity
  8
FORMAT
 62
     0
100
AcDbLine
 10
5.0
 20
0.0
 30
0.0
 11
9.5
 21
0.0
 31
0.0
  0
ENDBLK
  5
E0
330
DE
100
AcDbEntity
  8
0
100
AcDbBlockEnd
  0
BLOCK
  5
EB
330
EA
100
AcDbEntity
  8
0
100
AcDbBlockBegin
  2
SW_CENTERMARKSYMBOL_2
 70
     0
 10
0.0
 20
0.0
 30
0.0
  3
SW_CENTERMARKSYMBOL_2
  1

  0
LINE
  5
ED
330
EA
100
AcDbEntity
  8
FORMAT
 62
     0
100
AcDbLine
 10
0.0
 20
0.0
 30
0.0
 11
0.0
 21
2.5
 31
0.0
  0
LINE
  5
EE
330
EA
100
AcDbEntity
  8
FORMAT
 62
     0
100
AcDbLine
 10
0.0
 20
0.0
 30
0.0
 11
-2.5
 21
0.0
 31
0.0
  0
LINE
  5
EF
330
EA
100
AcDbEntity
  8
FORMAT
 62
     0
100
AcDbLine
 10
0.0
 20
0.0
 30
0.0
 11
0.0
 21
-2.5
 31
0.0
  0
LINE
  5
F0
330
EA
100
AcDbEntity
  8
FORMAT
 62
     0
100
AcDbLine
 10
0.0
 20
0.0
 30
0.0
 11
2.5
 21
0.0
 31
0.0
  0
LINE
  5
F1
330
EA
100
AcDbEntity
  8
FORMAT
 62
     0
100
AcDbLine
 10
0.0
 20
5.0
 30
0.0
 11
0.0
 21
9.5
 31
0.0
  0
LINE
  5
F2
330
EA
100
AcDbEntity
  8
FORMAT
 62
     0
100
AcDbLine
 10
-5.0
 20
0.0
 30
0.0
 11
-9.5
 21
0.0
 31
0.0
  0
LINE
  5
F3
330
EA
100
AcDbEntity
  8
FORMAT
 62
     0
100
AcDbLine
 10
0.0
 20
-5.0
 30
0.0
 11
0.0
 21
-9.5
 31
0.0
  0
LINE
  5
F4
330
EA
100
AcDbEntity
  8
FORMAT
 62
     0
100
AcDbLine
 10
5.0
 20
0.0
 30
0.0
 11
9.5
 21
0.0
 31
0.0
  0
ENDBLK
  5
EC
330
EA
100
AcDbEntity
  8
0
100
AcDbBlockEnd
  0
ENDSEC
  0
SECTION
  2
ENTITIES
  0
LINE
  5
83
330
1F
100
AcDbEntity
  8
0
  6
Continuous
 62
     7
370
    25
100
AcDbLine
 10
137.6070913462
 20
160.8838182741
 30
0.0
 11
137.6070913462
 21
175.4449519231
 31
0.0
  0
LINE
  5
84
330
1F
100
AcDbEntity
  8
0
  6
Continuous
 62
     7
370
    25
100
AcDbLine
 10
123.6070913462
 20
175.4449519231
 30
0.0
 11
123.6070913462
 21
160.8821215627
 31
0.0
  0
CIRCLE
  5
85
330
1F
100
AcDbEntity
  8
0
  6
Continuous
 62
     7
370
    25
100
AcDbCircle
 10
130.6070913462
 20
95.8949519231
 30
0.0
 40
64.99999999999999
  0
ARC
  5
86
330
1F
100
AcDbEntity
  8
0
  6
Continuous
 62
     7
370
    25
100
AcDbCircle
 10
130.6070913462
 20
95.8949519231
 30
0.0
 40
65.99999999999984
100
AcDbArc
 50
96.0882760441
 51
180.0
  0
ARC
  5
87
330
1F
100
AcDbEntity
  8
0
  6
Continuous
 62
     7
370
    25
100
AcDbCircle
 10
130.6070913462
 20
95.8949519231
 30
0.0
 40
65.99999999999986
100
AcDbArc
 50
180.0
 51
83.9117239559
  0
SPLINE
  5
88
330
1F
100
AcDbEntity
  8
0
  6
Continuous
 62
     7
370
    25
100
AcDbSpline
210
0.0
220
0.0
230
1.0
 70
     8
 71
     3
 72
    22
 73
    18
 74
     0
 42
0.00000001
 43
0.00000001
 40
0.0
 40
0.0
 40
0.0
 40
0.0
 40
0.0703082743155826
 40
0.1426529184024214
 40
0.2129619024772634
 40
0.2853166789911041
 40
0.3554991620981577
 40
0.4277231943195041
 40
0.4978096635638807
 40
0.5699204380015886
 40
0.6401570047362531
 40
0.7124234348157965
 40
0.7827679412562691
 40
0.855162714495943
 40
0.9253157855049579
 40
0.99751652470575
 40
1.0
 40
1.0
 40
1.0
 40
1.0
 10
135.6019447249949
 20
160.9277591656729
 30
0.0
 10
135.3168397990587
 20
160.9407983899243
 30
0.0
 10
134.738372326608
 20
160.9672544992695
 30
0.0
 10
133.7203490767249
 20
161.0057395362938
 30
0.0
 10
132.614222555009
 20
161.036354881846
 30
0.0
 10
131.4590532565591
 20
161.054547248928
 30
0.0
 10
130.2703842728664
 20
161.057933921048
 30
0.0
 10
129.1030681808716
 20
161.046045998171
 30
0.0
 10
127.9687142361511
 20
161.0204044820003
 30
0.0
 10
126.918713980631
 20
160.9850638731665
 30
0.0
 10
125.9634001217777
 20
160.9446093546648
 30
0.0
 10
125.146018115163
 20
160.9057167151783
 30
0.0
 10
124.4778518912438
 20
160.8743475257045
 30
0.0
 10
123.9830821622062
 20
160.8560352729694
 30
0.0
 10
123.695333336254
 20
160.8578993825353
 30
0.0
 10
123.5766618618464
 20
160.8672056817805
 30
0.0
 10
123.6092779621105
 20
160.8816415273614
 30
0.0
 10
123.6103625457772
 20
160.882121562749
 30
0.0
  0
SPLINE
  5
89
330
1F
100
AcDbEntity
  8
0
  6
Continuous
 62
     7
370
    25
100
AcDbSpline
210
0.0
220
0.0
230
1.0
 70
     8
 71
     3
 72
    12
 73
     8
 74
     0
 42
0.00000001
 43
0.00000001
 40
0.0
 40
0.0
 40
0.0
 40
0.0
 40
0.061577677714612
 40
0.2820514156795186
 40
0.4952772867563582
 40
0.7146734531244393
 40
1.0
 40
1.0
 40
1.0
 40
1.0
 10
137.5873118505184
 20
160.8838182741312
 30
0.0
 10
137.5930363534826
 20
160.8802221004659
 30
0.0
 10
137.619256961746
 20
160.8637501270013
 30
0.0
 10
137.4666948892917
 20
160.8555280540278
 30
0.0
 10
137.1230709456122
 20
160.8591551928175
 30
0.0
 10
136.5397054792256
 20
160.8830389589471
 30
0.0
 10
135.9406173259409
 20
160.9116084484901
 30
0.0
 10
135.6019447249949
 20
160.9277591656729
 30
0.0
  0
CIRCLE
  5
8A
330
1F
100
AcDbEntity
  8
0
  6
Continuous
 62
     7
370
    25
100
AcDbCircle
 10
130.6070913462
 20
95.8949519231
 30
0.0
 40
55.34999999999999
  0
LINE
  5
8B
330
1F
100
AcDbEntity
  8
0
  6
Continuous
 62
     7
370
    25
100
AcDbLine
 10
137.6070913462
 20
175.4449519231
 30
0.0
 11
123.6070913462
 21
175.4449519231
 31
0.0
  0
INSERT
  5
97
330
1F
100
AcDbEntity
  8
FORMAT
 62
     7
100
AcDbBlockReference
  2
SW_CENTERMARKSYMBOL_0
 10
130.6070913462
 20
95.8949519231
 30
0.0
  0
ARC
  5
98
330
1F
100
AcDbEntity
  8
0
  6
Continuous
 62
     7
370
    25
100
AcDbCircle
 10
319.1241462828
 20
-1608.7300480769
 30
0.0
 40
1770.625000000002
100
AcDbArc
 50
91.7630290266
 51
91.9257272513
  0
ARC
  5
99
330
1F
100
AcDbEntity
  8
0
  6
Continuous
 62
     7
370
    25
100
AcDbCircle
 10
319.1241462828
 20
-1608.7300480769
 30
0.0
 40
1770.625000000002
100
AcDbArc
 50
90.0
 51
91.3111539932
  0
ARC
  5
9A
330
1F
100
AcDbEntity
  8
0
  6
Continuous
 62
     7
370
    25
100
AcDbCircle
 10
319.1241462828
 20
1800.5199519231
 30
0.0
 40
1770.625000000002
100
AcDbArc
 50
268.0742727487
 51
270.0
  0
LINE
  5
9B
330
1F
100
AcDbEntity
  8
0
  6
Continuous
 62
     7
370
    25
100
AcDbLine
 10
319.1241462828
 20
29.8949519231
 30
0.0
 11
344.1241462828
 21
29.8949519231
 31
0.0
  0
LINE
  5
9C
330
1F
100
AcDbEntity
  8
0
  6
Continuous
 62
     7
370
    25
100
AcDbLine
 10
344.1241462828
 20
161.8949519231
 30
0.0
 11
319.1241462828
 21
161.8949519231
 31
0.0
  0
ARC
  5
9D
330
1F
100
AcDbEntity
  8
0
  6
Continuous
 62
     7
370
    25
100
AcDbCircle
 10
344.1241462828
 20
-1608.7300480769
 30
0.0
 40
1770.625000000002
100
AcDbArc
 50
88.6885707631
 51
90.0
  0
ARC
  5
9E
330
1F
100
AcDbEntity
  8
0
  6
Continuous
 62
     7
370
    25
100
AcDbCircle
 10
344.1241462828
 20
-1608.7300480769
 30
0.0
 40
1770.625000000002
100
AcDbArc
 50
88.0742727487
 51
88.2367792705
  0
ARC
  5
9F
330
1F
100
AcDbEntity
  8
0
  6
Continuous
 62
     7
370
    25
100
AcDbCircle
 10
344.1241462828
 20
1800.5199519231
 30
0.0
 40
1770.625000000002
100
AcDbArc
 50
270.0
 51
271.9257272513
  0
LINE
  5
A0
330
1F
100
AcDbEntity
  8
0
  6
Continuous
 62
     7
370
    25
100
AcDbLine
 10
278.6241462828
 20
161.4297218726
 30
0.0
 11
278.6241462828
 21
175.4449519231
 31
0.0
  0
LINE
  5
A1
330
1F
100
AcDbEntity
  8
0
  6
Continuous
 62
     7
370
    25
100
AcDbLine
 10
264.6241462828
 20
175.4449519231
 30
0.0
 11
264.6241462828
 21
161.0540493757
 31
0.0
  0
LINE
  5
A2
330
1F
100
AcDbEntity
  8
0
  6
Continuous
 62
     7
370
    25
100
AcDbLine
 10
398.6241462828
 20
161.0545161535
 30
0.0
 11
398.6241462828
 21
175.4449519231
 31
0.0
  0
LINE
  5
A3
330
1F
100
AcDbEntity
  8
0
  6
Continuous
 62
     7
370
    25
100
AcDbLine
 10
384.6241462828
 20
175.4449519231
 30
0.0
 11
384.6241462828
 21
161.4286233078
 31
0.0
  0
LINE
  5
A4
330
1F
100
AcDbEntity
  8
0
  6
Continuous
 62
     7
370
    25
100
AcDbLine
 10
259.6241462828
 20
95.8949519231
 30
0.0
 11
259.6241462828
 21
160.8949519231
 31
0.0
  0
LINE
  5
A5
330
1F
100
AcDbEntity
  8
0
  6
Continuous
 62
     7
370
    25
100
AcDbLine
 10
259.6241462828
 20
30.8949519231
 30
0.0
 11
259.6241462828
 21
95.8949519231
 31
0.0
  0
SPLINE
  5
A6
330
1F
100
AcDbEntity
  8
0
  6
Continuous
 62
     7
370
    25
100
AcDbSpline
210
0.0
220
0.0
230
1.0
 70
     8
 71
     3
 72
    27
 73
    23
 74
     0
 42
0.00000001
 43
0.00000001
 40
0.0
 40
0.0
 40
0.0
 40
0.0
 40
0.0106046038647002
 40
0.0647885892688061
 40
0.1172517883136155
 40
0.1712229239279162
 40
0.2239406426052276
 40
0.2781664580712919
 40
0.3312406658572859
 40
0.3858524073766504
 40
0.438933174401171
 40
0.4935702563534975
 40
0.5463532080981696
 40
0.6006770533829198
 40
0.6532983320872663
 40
0.7074379733239183
 40
0.7602021861082047
 40
0.8144868243273209
 40
0.8674127457868223
 40
0.9218764884954761
 40
0.9747413145012612
 40
1.0
 40
1.0
 40
1.0
 40
1.0
 10
278.6087384327068
 20
161.429714715202
 30
0.0
 10
278.6135343806125
 20
161.4303349132939
 30
0.0
 10
278.6428351166869
 20
161.4341239996144
 30
0.0
 10
278.5038850150497
 20
161.4160794382831
 30
0.0
 10
278.1836899515443
 20
161.3755861555254
 30
0.0
 10
277.6676194188536
 20
161.3133951452893
 30
0.0
 10
276.9811154962412
 20
161.2367839930702
 30
0.0
 10
276.1472555572059
 20
161.15299139087
 30
0.0
 10
275.1756780717648
 20
161.0683399320729
 30
0.0
 10
274.1093722230199
 20
160.9915284835035
 30
0.0
 10
272.9612761661756
 20
160.9277616065083
 30
0.0
 10
271.7867769606782
 20
160.8828962304393
 30
0.0
 10
270.5985669685252
 20
160.8585095672923
 30
0.0
 10
269.4532212568582
 20
160.8550154548389
 30
0.0
 10
268.3602967723348
 20
160.8699853992063
 30
0.0
 10
267.3691434724341
 20
160.8990249995804
 30
0.0
 10
266.4884910792651
 20
160.9371299111294
 30
0.0
 10
265.7593861201952
 20
160.9774461810679
 30
0.0
 10
265.1866734146254
 20
161.0146761130963
 30
0.0
 10
264.8118718287432
 20
161.0416650636093
 30
0.0
 10
264.6269877765579
 20
161.0557753867521
 30
0.0
 10
264.6440821270135
 20
161.0544710109867
 30
0.0
 10
264.6496090268372
 20
161.0540492836911
 30
0.0
  0
LINE
  5
A7
330
1F
100
AcDbEntity
  8
0
  6
Continuous
 62
     7
370
    25
100
AcDbLine
 10
403.6241462828
 20
95.8949519231
 30
0.0
 11
403.6241462828
 21
160.8949519231
 31
0.0
  0
LINE
  5
A8
330
1F
100
AcDbEntity
  8
0
  6
Continuous
 62
     7
370
    25
100
AcDbLine
 10
403.6241462828
 20
30.8949519231
 30
0.0
 11
403.6241462828
 21
95.8949519231
 31
0.0
  0
SPLINE
  5
A9
330
1F
100
AcDbEntity
  8
0
  6
Continuous
 62
     7
370
    25
100
AcDbSpline
210
0.0
220
0.0
230
1.0
 70
     8
 71
     3
 72
    27
 73
    23
 74
     0
 42
0.00000001
 43
0.00000001
 40
0.0
 40
0.0
 40
0.0
 40
0.0
 40
0.0147607870426068
 40
0.0691052537344514
 40
0.1218413261504456
 40
0.1761005728170268
 40
0.2289495850372745
 40
0.2833259537002737
 40
0.3362561843954058
 40
0.3907291239694484
 40
0.4435153104163084
 40
0.4978422504381413
 40
0.5504658679999391
 40
0.6046091902443089
 40
0.6573616430148472
 40
0.7116265129594044
 40
0.7646823786555247
 40
0.8192732241537843
 40
0.872369826400704
 40
0.9270251117826627
 40
0.9797834770598964
 40
1.0
 40
1.0
 40
1.0
 40
1.0
 10
398.604730507896
 20
161.0545132685955
 30
0.0
 10
398.6104147052952
 20
161.054947176288
 30
0.0
 10
398.6370262878905
 20
161.0569785924384
 30
0.0
 10
398.4853916953288
 20
161.0453444778069
 30
0.0
 10
398.1460935238782
 20
161.0205957150761
 30
0.0
 10
397.6118821824406
 20
160.9850154095564
 30
0.0
 10
396.9064975797422
 20
160.9446158815712
 30
0.0
 10
396.0565194331766
 20
160.9057408475253
 30
0.0
 10
395.0720482573412
 20
160.8742468219245
 30
0.0
 10
393.9989475785005
 20
160.8564220774037
 30
0.0
 10
392.8492622157077
 20
160.8564886935382
 30
0.0
 10
391.6778869923332
 20
160.876909350268
 30
0.0
 10
390.4961999171254
 20
160.9183144794277
 30
0.0
 10
389.3578761861387
 20
160.9779063206406
 30
0.0
 10
388.2730910664585
 20
161.0526326754334
 30
0.0
 10
387.289701771195
 20
161.1354728120835
 30
0.0
 10
386.418384000547
 20
161.2207991745855
 30
0.0
 10
385.7010015693823
 20
161.2994579444677
 30
0.0
 10
385.142374796097
 20
161.3659463974451
 30
0.0
 10
384.7865185528576
 20
161.4106650257363
 30
0.0
 10
384.6190913902687
 20
161.432360435885
 30
0.0
 10
384.6417126223739
 20
161.429432809352
 30
0.0
 10
384.6479794720938
 20
161.428621757353
 30
0.0
  0
LINE
  5
AA
330
1F
100
AcDbEntity
  8
0
  6
Continuous
 62
     7
370
    25
100
AcDbLine
 10
278.6241462828
 20
175.4449519231
 30
0.0
 11
264.6241462828
 21
175.4449519231
 31
0.0
  0
LINE
  5
AB
330
1F
100
AcDbEntity
  8
0
  6
Continuous
 62
     7
370
    25
100
AcDbLine
 10
398.6241462828
 20
175.4449519231
 30
0.0
 11
384.6241462828
 21
175.4449519231
 31
0.0
  0
LINE
  5
AC
330
1F
100
AcDbEntity
  8
0
  6
Continuous
 62
     1
370
    25
100
AcDbLine
 10
319.1241462828
 20
95.8949519231
 30
0.0
 11
319.1241462828
 21
161.8949519231
 31
0.0
  0
LINE
  5
AD
330
1F
100
AcDbEntity
  8
0
  6
Continuous
 62
     1
370
    25
100
AcDbLine
 10
319.1241462828
 20
29.8949519231
 30
0.0
 11
319.1241462828
 21
95.8949519231
 31
0.0
  0
LINE
  5
AE
330
1F
100
AcDbEntity
  8
0
  6
Continuous
 62
     1
370
    25
100
AcDbLine
 10
344.1241462828
 20
95.8949519231
 30
0.0
 11
344.1241462828
 21
161.8949519231
 31
0.0
  0
LINE
  5
AF
330
1F
100
AcDbEntity
  8
0
  6
Continuous
 62
     1
370
    25
100
AcDbLine
 10
344.1241462828
 20
29.8949519231
 30
0.0
 11
344.1241462828
 21
95.8949519231
 31
0.0
  0
ARC
  5
B0
330
1F
100
AcDbEntity
  8
0
  6
Continuous
 62
     7
370
    25
100
AcDbCircle
 10
1835.2320913462
 20
276.715075014
 30
0.0
 40
1770.625000000002
100
AcDbArc
 50
180.0
 51
181.9257272513
  0
ARC
  5
B1
330
1F
100
AcDbEntity
  8
0
  6
Continuous
 62
     7
370
    25
100
AcDbCircle
 10
-1574.0179086538
 20
276.715075014
 30
0.0
 40
1770.625000000002
100
AcDbArc
 50
358.0742727487
 51
0.0
  0
LINE
  5
B2
330
1F
100
AcDbEntity
  8
0
  6
Continuous
 62
     7
370
    25
100
AcDbLine
 10
196.6070913462
 20
276.715075014
 30
0.0
 11
196.6070913462
 21
301.715075014
 31
0.0
  0
LINE
  5
B3
330
1F
100
AcDbEntity
  8
0
  6
Continuous
 62
     7
370
    25
100
AcDbLine
 10
64.6070913462
 20
301.715075014
 30
0.0
 11
64.6070913462
 21
276.715075014
 31
0.0
  0
ARC
  5
B4
330
1F
100
AcDbEntity
  8
0
  6
Continuous
 62
     7
370
    25
100
AcDbCircle
 10
1835.2320913462
 20
301.715075014
 30
0.0
 40
1770.625000000002
100
AcDbArc
 50
178.0742727487
 51
180.0
  0
ARC
  5
B5
330
1F
100
AcDbEntity
  8
0
  6
Continuous
 62
     7
370
    25
100
AcDbCircle
 10
-1574.0179086538
 20
301.715075014
 30
0.0
 40
1770.625000000002
100
AcDbArc
 50
0.0
 51
1.9257272513
  0
LINE
  5
B6
330
1F
100
AcDbEntity
  8
0
  6
Continuous
 62
     7
370
    25
100
AcDbLine
 10
195.6070913462
 20
217.215075014
 30
0.0
 11
65.6070913462
 21
217.215075014
 31
0.0
  0
LINE
  5
B7
330
1F
100
AcDbEntity
  8
0
  6
Continuous
 62
     7
370
    25
100
AcDbLine
 10
195.6070913462
 20
361.215075014
 30
0.0
 11
65.6070913462
 21
361.215075014
 31
0.0
  0
LINE
  5
B8
330
1F
100
AcDbEntity
  8
0
  6
Continuous
 62
     1
370
    25
100
AcDbLine
 10
196.6070913462
 20
276.715075014
 30
0.0
 11
64.6070913462
 21
276.715075014
 31
0.0
  0
LINE
  5
B9
330
1F
100
AcDbEntity
  8
0
  6
Continuous
 62
     1
370
    25
100
AcDbLine
 10
196.6070913462
 20
301.715075014
 30
0.0
 11
64.6070913462
 21
301.715075014
 31
0.0
  0
ARC
  5
BA
330
1F
100
AcDbEntity
  8
0
  6
Continuous
 62
     7
370
    25
100
AcDbCircle
 10
-80.6436930429
 20
1800.5199519231
 30
0.0
 40
1770.625000000002
100
AcDbArc
 50
270.0
 51
271.9257272513
  0
ARC
  5
BB
330
1F
100
AcDbEntity
  8
0
  6
Continuous
 62
     7
370
    25
100
AcDbCircle
 10
-80.6436930429
 20
-1608.7300480769
 30
0.0
 40
1770.625000000002
100
AcDbArc
 50
88.6888448524
 51
90.0
  0
ARC
  5
BC
330
1F
100
AcDbEntity
  8
0
  6
Continuous
 62
     7
370
    25
100
AcDbCircle
 10
-80.6436930429
 20
-1608.7300480769
 30
0.0
 40
1770.625000000002
100
AcDbArc
 50
88.0742727487
 51
88.2369743774
  0
LINE
  5
BD
330
1F
100
AcDbEntity
  8
0
  6
Continuous
 62
     7
370
    25
100
AcDbLine
 10
-80.6436930429
 20
161.8949519231
 30
0.0
 11
-105.6436930429
 21
161.8949519231
 31
0.0
  0
LINE
  5
BE
330
1F
100
AcDbEntity
  8
0
  6
Continuous
 62
     7
370
    25
100
AcDbLine
 10
-105.6436930429
 20
29.8949519231
 30
0.0
 11
-80.6436930429
 21
29.8949519231
 31
0.0
  0
ARC
  5
BF
330
1F
100
AcDbEntity
  8
0
  6
Continuous
 62
     7
370
    25
100
AcDbCircle
 10
-105.6436930429
 20
1800.5199519231
 30
0.0
 40
1770.625000000002
100
AcDbArc
 50
268.0742727487
 51
270.0
  0
ARC
  5
C0
330
1F
100
AcDbEntity
  8
0
  6
Continuous
 62
     7
370
    25
100
AcDbCircle
 10
-105.6436930429
 20
-1608.7300480769
 30
0.0
 40
1770.625000000002
100
AcDbArc
 50
91.7632243245
 51
91.9257272513
  0
ARC
  5
C1
330
1F
100
AcDbEntity
  8
0
  6
Continuous
 62
     7
370
    25
100
AcDbCircle
 10
-105.6436930429
 20
-1608.7300480769
 30
0.0
 40
1770.625000000002
100
AcDbArc
 50
90.0
 51
91.3114275658
  0
LINE
  5
C2
330
1F
100
AcDbEntity
  8
0
  6
Continuous
 62
     7
370
    25
100
AcDbLine
 10
-26.1436930429
 20
161.0540493757
 30
0.0
 11
-26.1436930429
 21
175.4449519231
 31
0.0
  0
LINE
  5
C3
330
1F
100
AcDbEntity
  8
0
  6
Continuous
 62
     7
370
    25
100
AcDbLine
 10
-40.1436930429
 20
175.4449519231
 30
0.0
 11
-40.1436930429
 21
161.4297218726
 31
0.0
  0
LINE
  5
C4
330
1F
100
AcDbEntity
  8
0
  6
Continuous
 62
     7
370
    25
100
AcDbLine
 10
-146.1436930429
 20
161.4286233078
 30
0.0
 11
-146.1436930429
 21
175.4449519231
 31
0.0
  0
LINE
  5
C5
330
1F
100
AcDbEntity
  8
0
  6
Continuous
 62
     7
370
    25
100
AcDbLine
 10
-160.1436930429
 20
175.4449519231
 30
0.0
 11
-160.1436930429
 21
161.0545161535
 31
0.0
  0
LINE
  5
C6
330
1F
100
AcDbEntity
  8
0
  6
Continuous
 62
     7
370
    25
100
AcDbLine
 10
-21.1436930429
 20
160.8949519231
 30
0.0
 11
-21.1436930429
 21
30.8949519231
 31
0.0
  0
SPLINE
  5
C7
330
1F
100
AcDbEntity
  8
0
  6
Continuous
 62
     7
370
    25
100
AcDbSpline
210
0.0
220
0.0
230
1.0
 70
     8
 71
     3
 72
    12
 73
     8
 74
     0
 42
0.00000001
 43
0.00000001
 40
0.0
 40
0.0
 40
0.0
 40
0.0
 40
0.206065838667364
 40
0.4180776890755074
 40
0.6241528835617213
 40
0.8362657957639725
 40
0.9999999999999999
 40
0.9999999999999999
 40
0.9999999999999999
 40
0.9999999999999999
 10
-37.98662286319527
 20
161.1856996023897
 30
0.0
 10
-38.25332734445759
 20
161.2129190571802
 30
0.0
 10
-38.79443204144826
 20
161.2681433817469
 30
0.0
 10
-39.40917892882607
 20
161.3398374983643
 30
0.0
 10
-39.85553958505754
 20
161.3945857889181
 30
0.0
 10
-40.10945610887565
 20
161.4272600882198
 30
0.0
 10
-40.12258157543891
 20
161.4289711597188
 30
0.0
 10
-40.12829955950469
 20
161.4297165716643
 30
0.0
  0
SPLINE
  5
C8
330
1F
100
AcDbEntity
  8
0
  6
Continuous
 62
     7
370
    25
100
AcDbSpline
210
0.0
220
0.0
230
1.0
 70
     8
 71
     3
 72
    21
 73
    17
 74
     0
 42
0.00000001
 43
0.00000001
 40
0.0
 40
0.0
 40
0.0
 40
0.0
 40
0.0392270433628516
 40
0.1102093544790007
 40
0.183246772237196
 40
0.2543005699869624
 40
0.3274045445687602
 40
0.3986327332267931
 40
0.4719302524270979
 40
0.5430759261188902
 40
0.616300559926767
 40
0.6871765478634959
 40
0.7601089852567223
 40
0.8309908846197318
 40
0.9039071298872029
 40
1.0
 40
1.0
 40
1.0
 40
1.0
 10
-26.16915586199113
 20
161.0540492779672
 30
0.0
 10
-26.16492170452303
 20
161.0543714619084
 30
0.0
 10
-26.15302573375089
 20
161.0552766457087
 30
0.0
 10
-26.35154242237563
 20
161.0401628556153
 30
0.0
 10
-26.73916217527465
 20
161.0124057739899
 30
0.0
 10
-27.32199950763618
 20
160.9748480143072
 30
0.0
 10
-28.06147284463498
 20
160.9344813474315
 30
0.0
 10
-28.95380169448088
 20
160.896647301417
 30
0.0
 10
-29.9570134242856
 20
160.8683120200703
 30
0.0
 10
-31.06020055838703
 20
160.8545705205275
 30
0.0
 10
-32.21053967874912
 20
160.8596521755717
 30
0.0
 10
-33.39582827467503
 20
160.8856293569244
 30
0.0
 10
-34.56194435345421
 20
160.9316617269942
 30
0.0
 10
-35.69484345607703
 20
160.9959183350064
 30
0.0
 10
-36.88097693037164
 20
161.0819014231874
 30
0.0
 10
-37.58585373724565
 20
161.1480753464511
 30
0.0
 10
-37.98662286319527
 20
161.1856996023897
 30
0.0
  0
LINE
  5
C9
330
1F
100
AcDbEntity
  8
0
  6
Continuous
 62
     7
370
    25
100
AcDbLine
 10
-165.1436930429
 20
160.8949519231
 30
0.0
 11
-165.1436930429
 21
30.8949519231
 31
0.0
  0
SPLINE
  5
CA
330
1F
100
AcDbEntity
  8
0
  6
Continuous
 62
     7
370
    25
100
AcDbSpline
210
0.0
220
0.0
230
1.0
 70
     8
 71
     3
 72
    12
 73
     8
 74
     0
 42
0.00000001
 43
0.00000001
 40
0.0
 40
0.0
 40
0.0
 40
0.0
 40
0.2093215501483651
 40
0.4247057733084637
 40
0.6340294365496315
 40
0.8494438259362154
 40
1.0
 40
1.0
 40
1.0
 40
1.0
 10
-158.0479197632083
 20
160.9277591656729
 30
0.0
 10
-158.3115197699547
 20
160.9407911977449
 30
0.0
 10
-158.8463545475014
 20
160.9672327144209
 30
0.0
 10
-159.4490959292739
 20
161.00582856895
 30
0.0
 10
-159.8808251695919
 20
161.0360278242866
 30
0.0
 10
-160.1173184090226
 20
161.0539717179468
 30
0.0
 10
-160.1222508275181
 20
161.0543555643439
 30
0.0
 10
-160.1242799690168
 20
161.0545134744348
 30
0.0
  0
SPLINE
  5
CB
330
1F
100
AcDbEntity
  8
0
  6
Continuous
 62
     7
370
    25
100
AcDbSpline
210
0.0
220
0.0
230
1.0
 70
     8
 71
     3
 72
    21
 73
    17
 74
     0
 42
0.00000001
 43
0.00000001
 40
0.0
 40
0.0
 40
0.0
 40
0.0
 40
0.0456214989458968
 40
0.1158530936696187
 40
0.1881123132353551
 40
0.2585324026098805
 40
0.3309655938564351
 40
0.4018975103365596
 40
0.4748748190545342
 40
0.5459821334117133
 40
0.6191699782029559
 40
0.6899430588894225
 40
0.7627881001520118
 40
0.8332384291581643
 40
0.9057274382322548
 40
1.0
 40
1.0
 40
1.0
 40
1.0
 10
-146.1675290246301
 20
161.4286213962978
 30
0.0
 10
-146.1658855538215
 20
161.428831034986
 30
0.0
 10
-146.1617120570728
 20
161.4293634000143
 30
0.0
 10
-146.3781051972737
 20
161.4014623697223
 30
0.0
 10
-146.7805278850455
 20
161.3514607708676
 30
0.0
 10
-147.3736124151886
 20
161.2820634582065
 30
0.0
 10
-148.1217194028316
 20
161.2018834861522
 30
0.0
 10
-149.021060973834
 20
161.1164131190133
 30
0.0
 10
-150.0318066862478
 20
161.0346192608202
 30
0.0
 10
-151.1423574817826
 20
160.9622572527962
 30
0.0
 10
-152.2999008232562
 20
160.9064040502564
 30
0.0
 10
-153.4908768739462
 20
160.8698452312613
 30
0.0
 10
-154.6588419321372
 20
160.8545992439734
 30
0.0
 10
-155.7897107802894
 20
160.8594051585963
 30
0.0
 10
-156.9630561057319
 20
160.8829531705568
 30
0.0
 10
-157.6561209009806
 20
160.9115774659851
 30
0.0
 10
-158.0479197632083
 20
160.9277591656729
 30
0.0
  0
LINE
  5
CC
330
1F
100
AcDbEntity
  8
0
  6
Continuous
 62
     7
370
    25
100
AcDbLine
 10
-26.1436930429
 20
175.4449519231
 30
0.0
 11
-40.1436930429
 21
175.4449519231
 31
0.0
  0
LINE
  5
CD
330
1F
100
AcDbEntity
  8
0
  6
Continuous
 62
     7
370
    25
100
AcDbLine
 10
-146.1436930429
 20
175.4449519231
 30
0.0
 11
-160.1436930429
 21
175.4449519231
 31
0.0
  0
LINE
  5
CE
330
1F
100
AcDbEntity
  8
0
  6
Continuous
 62
     1
370
    25
100
AcDbLine
 10
-80.6436930429
 20
161.8949519231
 30
0.0
 11
-80.6436930429
 21
29.8949519231
 31
0.0
  0
LINE
  5
CF
330
1F
100
AcDbEntity
  8
0
  6
Continuous
 62
     1
370
    25
100
AcDbLine
 10
-105.6436930429
 20
161.8949519231
 30
0.0
 11
-105.6436930429
 21
29.8949519231
 31
0.0
  0
ARC
  5
D0
330
1F
100
AcDbEntity
  8
0
  6
Continuous
 62
     7
370
    25
100
AcDbCircle
 10
-1574.0179086538
 20
-86.143244287
 30
0.0
 40
1770.625000000002
100
AcDbArc
 50
0.0
 51
1.9257272513
  0
ARC
  5
D1
330
1F
100
AcDbEntity
  8
0
  6
Continuous
 62
     7
370
    25
100
AcDbCircle
 10
1835.2320913462
 20
-86.143244287
 30
0.0
 40
1770.625000000002
100
AcDbArc
 50
178.0742727487
 51
180.0
  0
LINE
  5
D2
330
1F
100
AcDbEntity
  8
0
  6
Continuous
 62
     7
370
    25
100
AcDbLine
 10
64.6070913462
 20
-86.143244287
 30
0.0
 11
64.6070913462
 21
-111.143244287
 31
0.0
  0
LINE
  5
D3
330
1F
100
AcDbEntity
  8
0
  6
Continuous
 62
     7
370
    25
100
AcDbLine
 10
196.6070913462
 20
-111.143244287
 30
0.0
 11
196.6070913462
 21
-86.143244287
 31
0.0
  0
ARC
  5
D4
330
1F
100
AcDbEntity
  8
0
  6
Continuous
 62
     7
370
    25
100
AcDbCircle
 10
-1574.0179086538
 20
-111.143244287
 30
0.0
 40
1770.625000000002
100
AcDbArc
 50
358.0742727487
 51
0.0
  0
ARC
  5
D5
330
1F
100
AcDbEntity
  8
0
  6
Continuous
 62
     7
370
    25
100
AcDbCircle
 10
1835.2320913462
 20
-111.143244287
 30
0.0
 40
1770.625000000002
100
AcDbArc
 50
180.0
 51
181.9257272513
  0
CIRCLE
  5
D6
330
1F
100
AcDbEntity
  8
0
  6
Continuous
 62
     7
370
    25
100
AcDbCircle
 10
130.6070913462
 20
-38.643244287
 30
0.0
 40
5.000000000000007
  0
CIRCLE
  5
D7
330
1F
100
AcDbEntity
  8
0
  6
Continuous
 62
     7
370
    25
100
AcDbCircle
 10
130.6070913462
 20
-38.643244287
 30
0.0
 40
7.000000000000021
  0
CIRCLE
  5
D8
330
1F
100
AcDbEntity
  8
0
  6
Continuous
 62
     7
370
    25
100
AcDbCircle
 10
130.6070913462
 20
-158.643244287
 30
0.0
 40
7.000000000000028
  0
CIRCLE
  5
D9
330
1F
100
AcDbEntity
  8
0
  6
Continuous
 62
     7
370
    25
100
AcDbCircle
 10
130.6070913462
 20
-158.643244287
 30
0.0
 40
5.0
  0
LINE
  5
DA
330
1F
100
AcDbEntity
  8
0
  6
Continuous
 62
     7
370
    25
100
AcDbLine
 10
65.6070913462
 20
-26.643244287
 30
0.0
 11
195.6070913462
 21
-26.643244287
 31
0.0
  0
LINE
  5
DB
330
1F
100
AcDbEntity
  8
0
  6
Continuous
 62
     7
370
    25
100
AcDbLine
 10
65.6070913462
 20
-170.643244287
 30
0.0
 11
195.6070913462
 21
-170.643244287
 31
0.0
  0
LINE
  5
DC
330
1F
100
AcDbEntity
  8
0
  6
Continuous
 62
     1
370
    25
100
AcDbLine
 10
64.6070913462
 20
-86.143244287
 30
0.0
 11
196.6070913462
 21
-86.143244287
 31
0.0
  0
LINE
  5
DD
330
1F
100
AcDbEntity
  8
0
  6
Continuous
 62
     1
370
    25
100
AcDbLine
 10
64.6070913462
 20
-111.143244287
 30
0.0
 11
196.6070913462
 21
-111.143244287
 31
0.0
  0
INSERT
  5
E9
330
1F
100
AcDbEntity
  8
FORMAT
 62
     7
100
AcDbBlockReference
  2
SW_CENTERMARKSYMBOL_1
 10
130.6070913462
 20
-38.643244287
 30
0.0
  0
INSERT
  5
F5
330
1F
100
AcDbEntity
  8
FORMAT
 62
     7
100
AcDbBlockReference
  2
SW_CENTERMARKSYMBOL_2
 10
130.6070913462
 20
-158.643244287
 30
0.0
  0
SPLINE
  5
F6
330
1F
100
AcDbEntity
  8
0
  6
Continuous
 62
     7
370
    25
100
AcDbSpline
210
0.0
220
0.0
230
1.0
 70
     8
 71
     3
 72
    12
 73
     8
 74
     0
 42
0.00000001
 43
0.00000001
 40
0.0
 40
0.0
 40
0.0
 40
0.0
 40
0.1239134733897984
 40
0.3952542068469304
 40
0.6665287376015654
 40
0.9377214182884169
 40
1.0
 40
1.0
 40
1.0
 40
1.0
 10
301.4370800012911
 20
-37.27217572991086
 30
0.0
 10
299.6644527960003
 20
-38.29081425778773
 30
0.0
 10
294.0101979285049
 20
-41.54002640869855
 30
0.0
 10
284.5544450474123
 20
-47.15538678546191
 30
0.0
 10
273.078875812518
 20
-54.12245888128228
 30
0.0
 10
264.5951334131645
 20
-59.37063817651535
 30
0.0
 10
259.9618581642516
 20
-62.33162265421902
 30
0.0
 10
259.0965547821661
 20
-62.88461157570835
 30
0.0
  0
SPLINE
  5
F7
330
1F
100
AcDbEntity
  8
0
  6
Continuous
 62
     7
370
    25
100
AcDbSpline
210
0.0
220
0.0
230
1.0
 70
     8
 71
     3
 72
    12
 73
     8
 74
     0
 42
0.00000001
 43
0.00000001
 40
0.0
 40
0.0
 40
0.0
 40
0.0
 40
0.0382075828961941
 40
0.30964951959146
 40
0.5810922695671539
 40
0.8525201661529654
 40
1.0
 40
1.0
 40
1.0
 40
1.0
 10
324.06315201913
 20
-175.4188987415234
 30
0.0
 10
324.6225800262281
 20
-175.1292474816921
 30
0.0
 10
329.1564081439233
 20
-172.7817979269925
 30
0.0
 10
337.6020500494579
 20
-168.2488104487441
 30
0.0
 10
349.3882469340218
 20
-161.8054298130379
 30
0.0
 10
359.325789480741
 20
-156.2398312271418
 30
0.0
 10
365.3072637696063
 20
-152.7773704628517
 30
0.0
 10
367.4130898744879
 20
-151.5583833181366
 30
0.0
  0
LINE
  5
F8
330
1F
100
AcDbEntity
  8
0
  6
Continuous
 62
     7
370
    25
100
AcDbLine
 10
307.837495926
 20
-60.4838018484
 30
0.0
 11
307.837495926
 21
-48.8491603427
 31
0.0
  0
LINE
  5
F9
330
1F
100
AcDbEntity
  8
0
  6
Continuous
 62
     7
370
    25
100
AcDbLine
 10
293.837495926
 20
-48.8491603427
 30
0.0
 11
293.837495926
 21
-60.7009016152
 31
0.0
  0
LINE
  5
FA
330
1F
100
AcDbEntity
  8
0
  6
Continuous
 62
     7
370
    25
100
AcDbLine
 10
319.1054193851
 20
-27.0509629575
 30
0.0
 11
301.4277498554
 21
-37.2560643553
 31
0.0
  0
LINE
  5
FB
330
1F
100
AcDbEntity
  8
0
  6
Continuous
 62
     7
370
    25
100
AcDbLine
 10
367.4223862094
 20
-151.5745141895
 30
0.0
 11
385.1000557391
 21
-141.3694127918
 31
0.0
  0
SPLINE
  5
FC
330
1F
100
AcDbEntity
  8
0
  6
Continuous
 62
     7
370
    25
100
AcDbSpline
210
0.0
220
0.0
230
1.0
 70
     8
 71
     3
 72
    12
 73
     8
 74
     0
 42
0.00000001
 43
0.00000001
 40
0.0
 40
0.0
 40
0.0
 40
0.0
 40
0.038197410891587
 40
0.3096424409343455
 40
0.5810882842673636
 40
0.8525192740410261
 40
1.0
 40
1.0
 40
1.0
 40
1.0
 10
362.4641877864029
 20
-3.206819934639269
 30
0.0
 10
361.9049151297075
 20
-3.496390863160475
 30
0.0
 10
357.3712426496937
 20
-5.843760672737716
 30
0.0
 10
348.925755808748
 20
-10.37666723744603
 30
0.0
 10
337.1395585991301
 20
-16.8200472057259
 30
0.0
 10
327.202027439779
 20
-22.38563952122861
 30
0.0
 10
321.2205643851628
 20
-25.84809372147689
 30
0.0
 10
319.1147495309547
 20
-27.06707433212716
 30
0.0
  0
SPLINE
  5
FD
330
1F
100
AcDbEntity
  8
0
  6
Continuous
 62
     7
370
    25
100
AcDbSpline
210
0.0
220
0.0
230
1.0
 70
     8
 71
     3
 72
    12
 73
     8
 74
     0
 42
0.00000001
 43
0.00000001
 40
0.0
 40
0.0
 40
0.0
 40
0.0
 40
0.1239129602288196
 40
0.3952542966675062
 40
0.6665294302568807
 40
0.9377227135965924
 40
0.9999999999999999
 40
0.9999999999999999
 40
0.9999999999999999
 40
0.9999999999999999
 10
385.0907594041518
 20
-141.3532819203528
 30
0.0
 10
386.8633753226634
 20
-140.334649863195
 30
0.0
 10
392.5176188887853
 20
-137.0854441580659
 30
0.0
 10
401.9733605444584
 20
-131.4700903548847
 30
0.0
 10
413.4489297470747
 20
-124.5030182146662
 30
0.0
 10
421.93265216475
 20
-119.254851556682
 30
0.0
 10
426.5659075446383
 20
-116.2938798853725
 30
0.0
 10
427.4311910162673
 20
-115.7409037083486
 30
0.0
  0
LINE
  5
FE
330
1F
100
AcDbEntity
  8
0
  6
Continuous
 62
     7
370
    25
100
AcDbLine
 10
392.6903096684
 20
-11.7166063124
 30
0.0
 11
392.6903096684
 21
0.1353263667
 31
0.0
  0
LINE
  5
FF
330
1F
100
AcDbEntity
  8
0
  6
Continuous
 62
     7
370
    25
100
AcDbLine
 10
378.6903096684
 20
0.1353263667
 30
0.0
 11
378.6903096684
 21
-11.4996815849
 31
0.0
  0
LWPOLYLINE
  5
100
330
1F
100
AcDbEntity
  8
0
  6
Continuous
 62
     7
370
    25
100
AcDbPolyline
 90
      125
 70
   128
 43
0.0
 10
246.3902737747
 20
-92.1701669649
 10
246.4492655961
 20
-89.5160098446
 10
246.6260896291
 20
-86.9367764147
 10
246.920291969
 20
-84.4390875306
 10
247.3311174025
 20
-82.0293547237
 10
247.8575113468
 20
-79.7137637435
 10
248.498122556
 20
-77.498258679
 10
249.2513065904
 20
-75.3885266999
 10
250.1151300374
 20
-73.3899834578
 10
251.0873754746
 20
-71.5077591846
 10
252.1655471619
 20
-69.7466855231
 10
253.346877448
 20
-68.1112831241
 10
254.628333875
 20
-66.605750042
 10
256.0066269627
 20
-65.2339509587
 10
257.4782186524
 20
-63.9994072628
 10
259.0393313895
 20
-62.9052880102
 10
260.6859578198
 20
-61.9544017894
 10
262.4138710771
 20
-61.1491895116
 10
264.2186356326
 20
-60.4917181453
 10
266.0956186818
 20
-59.98367541
 10
268.0400020359
 20
-59.626365444
 10
270.0467944909
 20
-59.420705457
 10
272.1108446393
 20
-59.3672233753
 10
274.226854094
 20
-59.4660564864
 10
276.389391089
 20
-59.7169510874
 10
278.5929044228
 20
-60.1192631352
 10
280.8317377085
 20
-60.6719599007
 10
283.100143893
 20
-61.3736226192
 10
285.3923000101
 20
-62.2224501325
 10
287.7023221281
 20
-63.2162635127
 10
290.0242804532
 20
-64.3525116549
 10
292.3522145518
 20
-65.6282778266
 10
294.6801486504
 20
-67.0402871542
 10
297.0021069755
 20
-68.5849150301
 10
299.3121290935
 20
-70.2581964167
 10
301.6042852106
 20
-72.0558360246
 10
303.8726913951
 20
-73.9732193387
 10
306.1115246808
 20
-76.0054244636
 10
308.3150380146
 20
-78.1472347579
 10
310.4775750096
 20
-80.3931522253
 10
312.5935844643
 20
-82.7374116278
 10
314.6576346127
 20
-85.1739952851
 10
316.6644270677
 20
-87.6966485221
 10
318.6088104218
 20
-90.2988957239
 10
320.485793471
 20
-92.9740569594
 10
322.2905580265
 20
-95.715265128
 10
324.0184712838
 20
-98.5154835876
 10
325.6650977141
 20
-101.3675242177
 10
327.2262104512
 20
-104.2640658708
 10
328.6978021409
 20
-107.1976731662
 10
330.0760952286
 20
-110.1608155758
 10
331.3575516556
 20
-113.1458867556
 10
332.5388819417
 20
-116.1452240709
 10
333.617053629
 20
-119.1511282655
 10
334.5892990662
 20
-122.1558832267
 10
335.4531225132
 20
-125.1517757915
 10
336.2063065476
 20
-128.1311155467
 10
336.8469177568
 20
-131.0862545698
 10
337.3733117011
 20
-134.0096070614
 10
337.7841371346
 20
-136.8936688176
 10
338.0783394745
 20
-139.7310364931
 10
338.2551635075
 20
-142.5144266059
 10
338.3141553289
 20
-145.2366942334
 10
338.2551635075
 20
-147.8908513537
 10
338.0783394745
 20
-150.4700847836
 10
337.7841371346
 20
-152.9677736677
 10
337.3733117011
 20
-155.3775064746
 10
336.8469177568
 20
-157.6930974548
 10
336.2063065476
 20
-159.9086025193
 10
335.4531225132
 20
-162.0183344984
 10
334.5892990662
 20
-164.0168777405
 10
333.617053629
 20
-165.8991020137
 10
332.5388819417
 20
-167.6601756752
 10
331.3575516556
 20
-169.2955780742
 10
330.0760952286
 20
-170.8011111563
 10
328.6978021409
 20
-172.1729102396
 10
327.2262104512
 20
-173.4074539355
 10
325.6650977141
 20
-174.5015731881
 10
324.0184712838
 20
-175.4524594089
 10
322.2905580265
 20
-176.2576716867
 10
320.485793471
 20
-176.915143053
 10
318.6088104218
 20
-177.4231857883
 10
316.6644270677
 20
-177.7804957543
 10
314.6576346127
 20
-177.9861557413
 10
312.5935844643
 20
-178.039637823
 10
310.4775750096
 20
-177.9408047119
 10
308.3150380146
 20
-177.689910111
 10
306.1115246808
 20
-177.2875980631
 10
303.8726913951
 20
-176.7349012976
 10
301.6042852106
 20
-176.0332385791
 10
299.3121290935
 20
-175.1844110658
 10
297.0021069755
 20
-174.1905976856
 10
294.6801486504
 20
-173.0543495434
 10
292.3522145518
 20
-171.7785833717
 10
290.0242804532
 20
-170.3665740441
 10
287.7023221281
 20
-168.8219461682
 10
285.3923000101
 20
-167.1486647816
 10
283.100143893
 20
-165.3510251737
 10
280.8317377085
 20
-163.4336418596
 10
278.5929044228
 20
-161.4014367347
 10
276.389391089
 20
-159.2596264404
 10
274.226854094
 20
-157.013708973
 10
272.1108446393
 20
-154.6694495705
 10
270.0467944909
 20
-152.2328659132
 10
268.0400020359
 20
-149.7102126762
 10
266.0956186818
 20
-147.1079654744
 10
264.2186356326
 20
-144.4328042389
 10
262.4138710771
 20
-141.6915960703
 10
260.6859578198
 20
-138.8913776107
 10
259.0393313895
 20
-136.0393369806
 10
257.4782186524
 20
-133.1427953275
 10
256.0066269627
 20
-130.2091880321
 10
254.628333875
 20
-127.2460456225
 10
253.346877448
 20
-124.2609744427
 10
252.1655471619
 20
-121.2616371274
 10
251.0873754746
 20
-118.2557329328
 10
250.1151300374
 20
-115.2509779716
 10
249.2513065904
 20
-112.2550854068
 10
248.498122556
 20
-109.2757456516
 10
247.8575113468
 20
-106.3206066285
 10
247.3311174025
 20
-103.3972541369
 10
246.920291969
 20
-100.5131923807
 10
246.6260896291
 20
-97.6758247052
 10
246.4492655961
 20
-94.8924345924
 10
246.3902737747
 20
-92.1701669649
  0
SPLINE
  5
101
330
1F
100
AcDbEntity
  8
0
  6
Continuous
 62
     7
370
    25
100
AcDbSpline
210
0.0
220
0.0
230
1.0
 70
     8
 71
     3
 72
    17
 73
    13
 74
     0
 42
0.00000001
 43
0.00000001
 40
0.0
 40
0.0
 40
0.0
 40
0.0
 40
0.1052554020641433
 40
0.2135593630797234
 40
0.3188158276930041
 40
0.4271349575160731
 40
0.5322020431358329
 40
0.6403254414719889
 40
0.745248788992383
 40
0.8532026341191934
 40
0.9583506859413623
 40
0.9999999999999999
 40
0.9999999999999999
 40
0.9999999999999999
 40
0.9999999999999999
 10
300.9015786508702
 20
-64.7438853493868
 30
0.0
 10
300.5135188852002
 20
-64.72449831409664
 30
0.0
 10
299.7261598065389
 20
-64.68516272820386
 30
0.0
 10
298.5811352010919
 20
-64.48362642440114
 30
0.0
 10
297.4898431309247
 20
-64.18555868253904
 30
0.0
 10
296.5034210648051
 20
-63.79709348604936
 30
0.0
 10
295.6317177672676
 20
-63.32700278104722
 30
0.0
 10
294.9164393308708
 20
-62.79703984700227
 30
0.0
 10
294.359827651302
 20
-62.21167818359833
 30
0.0
 10
294.0030554165231
 20
-61.59504126984268
 30
0.0
 10
293.8335408906693
 20
-61.08376234110168
 30
0.0
 10
293.855462467654
 20
-60.78573269934338
 30
0.0
 10
293.8616820523109
 20
-60.70117579960684
 30
0.0
  0
SPLINE
  5
102
330
1F
100
AcDbEntity
  8
0
  6
Continuous
 62
     7
370
    25
100
AcDbSpline
210
0.0
220
0.0
230
1.0
 70
     8
 71
     3
 72
    16
 73
    12
 74
     0
 42
0.00000001
 43
0.00000001
 40
0.0
 40
0.0
 40
0.0
 40
0.0
 40
0.1010387144958813
 40
0.2107252254058382
 40
0.3176010933849956
 40
0.4276040446748891
 40
0.5339775520461655
 40
0.6434652620419339
 40
0.749353666491139
 40
0.8583062522241178
 40
0.9999999999999999
 40
0.9999999999999999
 40
0.9999999999999999
 40
0.9999999999999999
 10
307.8327150636004
 20
-60.48359613990796
 30
0.0
 10
307.8178876162478
 20
-60.7172725780874
 30
0.0
 10
307.7869636560496
 20
-61.20462557295752
 30
0.0
 10
307.4953164002055
 20
-61.9202668950796
 30
0.0
 10
307.0212295956695
 20
-62.61032753855013
 30
0.0
 10
306.3714205349987
 20
-63.22637838173729
 30
0.0
 10
305.5591577873734
 20
-63.75950014922714
 30
0.0
 10
304.6229688723927
 20
-64.1850736353545
 30
0.0
 10
303.5722571183634
 20
-64.49782676043884
 30
0.0
 10
302.3323787056984
 20
-64.72076381278957
 30
0.0
 10
301.418312555351
 20
-64.73553499893555
 30
0.0
 10
300.9015786508702
 20
-64.7438853493868
 30
0.0
  0
LWPOLYLINE
  5
103
330
1F
100
AcDbEntity
  8
0
  6
Continuous
 62
     7
370
    25
100
AcDbPolyline
 90
      115
 70
   128
 43
0.0
 10
253.2138542131
 20
-96.1093361045
 10
253.2732851701
 20
-93.6539241229
 10
253.4513975513
 20
-91.2745866693
 10
253.7476504351
 20
-88.9785497131
 10
254.1611441114
 20
-86.7727862433
 10
254.6906228133
 20
-84.6639950909
 10
255.3344785316
 20
-82.6585805854
 10
256.0907558975
 20
-80.7626331047
 10
256.9571581216
 20
-78.981910579
 10
257.9310539687
 20
-77.3218210041
 10
259.0094857492
 20
-75.7874060175
 10
260.1891783012
 20
-74.383325587
 10
261.4665489372
 20
-73.1138438588
 10
262.8377183246
 20
-71.9828162072
 10
264.298522267
 20
-70.9936775259
 10
265.8445243508
 20
-70.1494317966
 10
267.4710294185
 20
-69.4526429659
 10
269.1730978277
 20
-68.9054271585
 10
270.9455604526
 20
-68.5094462509
 10
272.7830343825
 20
-68.265902824
 10
274.6799392693
 20
-68.1755365113
 10
276.6305142753
 20
-68.2386217522
 10
278.6288355684
 20
-68.454966959
 10
280.6688343124
 20
-68.8239150984
 10
282.7443150982
 20
-69.344345687
 10
284.8489747588
 20
-70.0146781942
 10
286.9764215121
 20
-70.8328768422
 10
289.1201943722
 20
-71.7964567886
 10
291.2737827713
 20
-72.9024916728
 10
293.4306463323
 20
-74.1476225032
 10
295.5842347314
 20
-75.5280678584
 10
297.7280075915
 20
-77.0396353712
 10
299.8554543448
 20
-78.6777344608
 10
301.9601140054
 20
-80.437390274
 10
304.0355947912
 20
-82.3132587941
 10
306.0755935352
 20
-84.2996430698
 10
308.0739148283
 20
-86.3905105176
 10
310.0244898343
 20
-88.5795112416
 10
311.9213947211
 20
-90.8599973187
 10
313.758868651
 20
-93.2250429875
 10
315.5313312759
 20
-95.6674656821
 10
317.2333996851
 20
-98.179847845
 10
318.8599047528
 20
-100.7545594542
 10
320.4059068367
 20
-103.3837811952
 10
321.866710779
 20
-106.0595282079
 10
323.2378801664
 20
-108.7736743366
 10
324.5152508024
 20
-111.5179768087
 10
325.6949433544
 20
-114.2841012678
 10
326.7733751349
 20
-117.0636470849
 10
327.747270982
 20
-119.8481728705
 10
328.6136732061
 20
-122.6292221116
 10
329.369950572
 20
-125.3983488528
 10
330.0138062903
 20
-128.1471433473
 10
330.5432849923
 20
-130.8672575966
 10
330.9567786685
 20
-133.5504307031
 10
331.2530315523
 20
-136.1885139583
 10
331.4311439335
 20
-138.7734955899
 10
331.4905748905
 20
-141.2975250938
 10
331.4311439335
 20
-143.7529370754
 10
331.2530315523
 20
-146.132274529
 10
330.9567786685
 20
-148.4283114852
 10
330.5432849923
 20
-150.634074955
 10
330.0138062903
 20
-152.7428661074
 10
329.369950572
 20
-154.7482806129
 10
328.6136732061
 20
-156.6442280936
 10
327.747270982
 20
-158.4249506193
 10
326.7733751349
 20
-160.0850401942
 10
325.6949433544
 20
-161.6194551808
 10
324.5152508024
 20
-163.0235356113
 10
323.2378801664
 20
-164.2930173395
 10
321.866710779
 20
-165.4240449911
 10
320.4059068367
 20
-166.4131836724
 10
318.8599047528
 20
-167.2574294017
 10
317.2333996851
 20
-167.9542182324
 10
315.5313312759
 20
-168.5014340398
 10
313.758868651
 20
-168.8974149474
 10
311.9213947211
 20
-169.1409583743
 10
310.0244898343
 20
-169.231324687
 10
308.0739148283
 20
-169.1682394461
 10
306.0755935352
 20
-168.9518942393
 10
304.0355947912
 20
-168.5829460999
 10
301.9601140054
 20
-168.0625155113
 10
299.8554543448
 20
-167.3921830041
 10
297.7280075915
 20
-166.5739843561
 10
295.5842347314
 20
-165.6104044097
 10
293.4306463323
 20
-164.5043695255
 10
291.2737827713
 20
-163.2592386951
 10
289.1201943722
 20
-161.8787933399
 10
286.9764215121
 20
-160.3672258271
 10
284.8489747588
 20
-158.7291267375
 10
282.7443150982
 20
-156.9694709243
 10
280.6688343124
 20
-155.0936024042
 10
278.6288355684
 20
-153.1072181285
 10
276.6305142753
 20
-151.0163506807
 10
274.6799392693
 20
-148.8273499567
 10
272.7830343825
 20
-146.5468638796
 10
270.9455604526
 20
-144.1818182108
 10
269.1730978277
 20
-141.7393955162
 10
267.4710294185
 20
-139.2270133533
 10
265.8445243508
 20
-136.6523017441
 10
264.298522267
 20
-134.0230800031
 10
262.8377183246
 20
-131.3473329904
 10
261.4665489372
 20
-128.6331868617
 10
260.1891783012
 20
-125.8888843896
 10
259.0094857492
 20
-123.1227599305
 10
257.9310539687
 20
-120.3432141134
 10
256.9571581216
 20
-117.5586883278
 10
256.0907558975
 20
-114.7776390867
 10
255.3344785316
 20
-112.0085123455
 10
254.6906228133
 20
-109.259717851
 10
254.1611441114
 20
-106.5396036017
 10
253.7476504351
 20
-103.8564304952
 10
253.4513975513
 20
-101.21834724
 10
253.2732851701
 20
-98.6333656084
 10
253.2138542131
 20
-96.1093361045
  0
LWPOLYLINE
  5
104
330
1F
100
AcDbEntity
  8
0
  6
Continuous
 62
     7
370
    25
100
AcDbPolyline
 90
       41
 70
   128
 43
0.0
 10
305.7872433943
 20
-45.9917319513
 10
306.5006148867
 20
-46.4739119182
 10
307.0745415954
 20
-47.0145783844
 10
307.4948915401
 20
-47.600418347
 10
307.7513143102
 20
-48.2170064818
 10
307.837495926
 20
-48.8491603427
 10
307.7513143102
 20
-49.4813142036
 10
307.4948915401
 20
-50.0979023385
 10
307.0745415954
 20
-50.683742301
 10
306.5006148867
 20
-51.2244087672
 10
305.7872433943
 20
-51.7065887341
 10
304.9519926921
 20
-52.1184093307
 10
304.0154294242
 20
-52.4497301673
 10
303.0006148867
 20
-52.6923930252
 10
301.9325371813
 20
-52.8404227395
 10
300.837495926
 20
-52.8901743273
 10
299.7424546708
 20
-52.8404227395
 10
298.6743769654
 20
-52.6923930252
 10
297.6595624279
 20
-52.4497301673
 10
296.72299916
 20
-52.1184093307
 10
295.8877484577
 20
-51.7065887341
 10
295.1743769654
 20
-51.2244087672
 10
294.6004502567
 20
-50.683742301
 10
294.180100312
 20
-50.0979023385
 10
293.9236775419
 20
-49.4813142036
 10
293.837495926
 20
-48.8491603427
 10
293.9236775419
 20
-48.2170064818
 10
294.180100312
 20
-47.600418347
 10
294.6004502567
 20
-47.0145783844
 10
295.1743769654
 20
-46.4739119182
 10
295.8877484577
 20
-45.9917319513
 10
296.72299916
 20
-45.5799113547
 10
297.6595624279
 20
-45.2485905181
 10
298.6743769654
 20
-45.0059276602
 10
299.7424546708
 20
-44.8578979459
 10
300.837495926
 20
-44.8081463581
 10
301.9325371813
 20
-44.8578979459
 10
303.0006148867
 20
-45.0059276602
 10
304.0154294242
 20
-45.2485905181
 10
304.9519926921
 20
-45.5799113547
 10
305.7872433943
 20
-45.9917319513
  0
LWPOLYLINE
  5
105
330
1F
100
AcDbEntity
  8
0
  6
Continuous
 62
     7
370
    25
100
AcDbPolyline
 90
       35
 70
   128
 43
0.0
 10
304.373029832
 20
-46.8081400631
 10
304.962483299
 20
-47.2179288042
 10
305.4114652685
 20
-47.6832671789
 10
305.7046861978
 20
-48.1883086469
 10
305.8321608001
 20
-48.7158546268
 10
305.7895480804
 20
-49.247940173
 10
305.578299164
 20
-49.7664457504
 10
305.2056078793
 20
-50.2537142733
 10
304.684165781
 20
-50.6931523967
 10
304.0317299543
 20
-51.0697955824
 10
303.2705183189
 20
-51.3708176983
 10
302.426453024
 20
-51.5859677974
 10
301.5282777008
 20
-51.707919201
 10
300.6065786328
 20
-51.7325190005
 10
299.6927431763
 20
-51.658929479
 10
298.8178909017
 20
-51.4896566395
 10
298.0118138539
 20
-51.2304648656
 10
297.3019620201
 20
-50.8901806223
 10
296.7125085531
 20
-50.4803918812
 10
296.2635265836
 20
-50.0150535065
 10
295.9703056542
 20
-49.5100120385
 10
295.842831052
 20
-48.9824660586
 10
295.8854437717
 20
-48.4503805124
 10
296.0966926881
 20
-47.931874935
 10
296.4693839728
 20
-47.4446064121
 10
296.9908260711
 20
-47.0051682887
 10
297.6432618978
 20
-46.628525103
 10
298.4044735332
 20
-46.3275029871
 10
299.2485388281
 20
-46.112352888
 10
300.1467141513
 20
-45.9904014844
 10
301.0684132193
 20
-45.965801685
 10
301.9822486758
 20
-46.0393912064
 10
302.8571009504
 20
-46.2086640459
 10
303.6631779982
 20
-46.4678558198
 10
304.373029832
 20
-46.8081400631
  0
ARC
  5
106
330
1F
100
AcDbEntity
  8
0
  6
Continuous
 62
     7
370
    25
100
AcDbCircle
 10
373.826546473
 20
-26.2196660465
 30
0.0
 40
25.67410461082154
100
AcDbArc
 50
79.0797567214
 51
116.2783913245
  0
LWPOLYLINE
  5
107
330
1F
100
AcDbEntity
  8
0
  6
Continuous
 62
     7
370
    25
100
AcDbPolyline
 90
       49
 70
   128
 43
0.0
 10
392.6903096684
 20
-6.0171792301
 10
394.1755910427
 20
-6.8468937753
 10
396.5035251412
 20
-8.258903103
 10
398.8254834664
 20
-9.8035309789
 10
401.1355055843
 20
-11.4768123654
 10
403.4276617015
 20
-13.2744519733
 10
405.696067886
 20
-15.1918352875
 10
407.9349011716
 20
-17.2240404124
 10
410.1384145055
 20
-19.3658507067
 10
412.3009515005
 20
-21.611768174
 10
414.4169609552
 20
-23.9560275765
 10
416.4810111035
 20
-26.3926112339
 10
418.4878035585
 20
-28.9152644708
 10
420.4321869127
 20
-31.5175116727
 10
422.3091699618
 20
-34.1926729081
 10
424.1139345174
 20
-36.9338810767
 10
425.8418477746
 20
-39.7340995364
 10
427.488474205
 20
-42.5861401665
 10
429.049586942
 20
-45.4826818196
 10
430.5211786318
 20
-48.4162891149
 10
431.8994717195
 20
-51.3794315245
 10
433.1809281465
 20
-54.3645027044
 10
434.3622584326
 20
-57.3638400196
 10
435.4404301199
 20
-60.3697442143
 10
436.412675557
 20
-63.3744991755
 10
437.276499004
 20
-66.3703917403
 10
438.0296830385
 20
-69.3497314955
 10
438.6702942477
 20
-72.3048705186
 10
439.1966881919
 20
-75.2282230102
 10
439.6075136255
 20
-78.1122847663
 10
439.9017159654
 20
-80.9496524419
 10
440.0785399984
 20
-83.7330425546
 10
440.1375318198
 20
-86.4553101822
 10
440.0785399984
 20
-89.1094673025
 10
439.9017159654
 20
-91.6887007323
 10
439.6075136255
 20
-94.1863896165
 10
439.1966881919
 20
-96.5961224234
 10
438.6702942477
 20
-98.9117134035
 10
438.0296830385
 20
-101.127218468
 10
437.276499004
 20
-103.2369504472
 10
436.412675557
 20
-105.2354936893
 10
435.4404301199
 20
-107.1177179624
 10
434.3622584326
 20
-108.878791624
 10
433.1809281465
 20
-110.514194023
 10
431.8994717195
 20
-112.0197271051
 10
430.5211786318
 20
-113.3915261884
 10
429.049586942
 20
-114.6260698843
 10
427.488474205
 20
-115.7201891369
 10
427.436245646
 20
-115.7533814111
  0
SPLINE
  5
108
330
1F
100
AcDbEntity
  8
0
  6
Continuous
 62
     7
370
    25
100
AcDbSpline
210
0.0
220
0.0
230
1.0
 70
     8
 71
     3
 72
    17
 73
    13
 74
     0
 42
0.00000001
 43
0.00000001
 40
0.0
 40
0.0
 40
0.0
 40
0.0
 40
0.1044055280460848
 40
0.211823668466831
 40
0.3162339367416389
 40
0.4237032812340903
 40
0.5275540767418283
 40
0.6344396797031504
 40
0.7379307872944977
 40
0.8443965138300853
 40
0.9483896975271782
 40
1.0
 40
1.0
 40
1.0
 40
1.0
 10
385.8397767104461
 20
-15.54802777712781
 30
0.0
 10
385.4521280534809
 20
-15.51981434657876
 30
0.0
 10
384.6656451714793
 20
-15.46257338941129
 30
0.0
 10
383.5180324117334
 20
-15.24252840354082
 30
0.0
 10
382.4210933072054
 20
-14.93231227774874
 30
0.0
 10
381.4274047219594
 20
-14.53953116655352
 30
0.0
 10
380.5469847625789
 20
-14.07323476172639
 30
0.0
 10
379.8219480733731
 20
-13.55587554483974
 30
0.0
 10
379.2538911010668
 20
-12.99145605272477
 30
0.0
 10
378.8807441701821
 20
-12.40329056875521
 30
0.0
 10
378.6947255140735
 20
-11.89882202071148
 30
0.0
 10
378.7103837570846
 20
-11.59912725007302
 30
0.0
 10
378.7155772567798
 20
-11.49972499281715
 30
0.0
  0
SPLINE
  5
109
330
1F
100
AcDbEntity
  8
0
  6
Continuous
 62
     7
370
    25
100
AcDbSpline
210
0.0
220
0.0
230
1.0
 70
     8
 71
     3
 72
    16
 73
    12
 74
     0
 42
0.00000001
 43
0.00000001
 40
0.0
 40
0.0
 40
0.0
 40
0.0
 40
0.0939841302720005
 40
0.2044136785304253
 40
0.3116012708533762
 40
0.4219210104709592
 40
0.5287022960535412
 40
0.6385818145227877
 40
0.7453720062203495
 40
0.8552271297420998
 40
1.0
 40
1.0
 40
1.0
 40
1.0
 10
392.6797940603169
 20
-11.71622656338112
 30
0.0
 10
392.6697048933918
 20
-11.9215121046255
 30
0.0
 10
392.6477611490756
 20
-12.36800421465967
 30
0.0
 10
392.3740210494921
 20
-13.02562633305375
 30
0.0
 10
391.9144605690744
 20
-13.6699858985609
 30
0.0
 10
391.279160385504
 20
-14.23883119196985
 30
0.0
 10
390.4818493829543
 20
-14.72486304182706
 30
0.0
 10
389.5587600306861
 20
-15.10645701712932
 30
0.0
 10
388.5187678307824
 20
-15.37851088730244
 30
0.0
 10
387.280567211861
 20
-15.56187640537668
 30
0.0
 10
386.3620273991941
 20
-15.55304756011087
 30
0.0
 10
385.8397767104461
 20
-15.54802777712781
 30
0.0
  0
LWPOLYLINE
  5
10A
330
1F
100
AcDbEntity
  8
0
  6
Continuous
 62
     7
370
    25
100
AcDbPolyline
 90
       41
 70
   128
 43
0.0
 10
380.7405622001
 20
-2.7221020247
 10
380.0271907078
 20
-2.2399220578
 10
379.4532639991
 20
-1.6992555917
 10
379.0329140544
 20
-1.1134156291
 10
378.7764912843
 20
-0.4968274942
 10
378.6903096684
 20
0.1353263667
 10
378.7764912843
 20
0.7674802276
 10
379.0329140544
 20
1.3840683624
 10
379.4532639991
 20
1.969908325
 10
380.0271907078
 20
2.5105747911
 10
380.7405622001
 20
2.992754758
 10
381.5758129024
 20
3.4045753547
 10
382.5123761703
 20
3.7358961913
 10
383.5271907078
 20
3.9785590492
 10
384.5952684131
 20
4.1265887634
 10
385.6903096684
 20
4.1763403513
 10
386.7853509237
 20
4.1265887634
 10
387.8534286291
 20
3.9785590492
 10
388.8682431666
 20
3.7358961913
 10
389.8048064345
 20
3.4045753547
 10
390.6400571367
 20
2.992754758
 10
391.3534286291
 20
2.5105747911
 10
391.9273553377
 20
1.969908325
 10
392.3477052825
 20
1.3840683624
 10
392.6041280526
 20
0.7674802276
 10
392.6903096684
 20
0.1353263667
 10
392.6041280526
 20
-0.4968274942
 10
392.3477052825
 20
-1.1134156291
 10
391.9273553377
 20
-1.6992555917
 10
391.3534286291
 20
-2.2399220578
 10
390.6400571367
 20
-2.7221020247
 10
389.8048064345
 20
-3.1339226214
 10
388.8682431666
 20
-3.465243458
 10
387.8534286291
 20
-3.7079063158
 10
386.7853509237
 20
-3.8559360301
 10
385.6903096684
 20
-3.9056876179
 10
384.5952684131
 20
-3.8559360301
 10
383.5271907078
 20
-3.7079063158
 10
382.5123761703
 20
-3.465243458
 10
381.5758129024
 20
-3.1339226214
 10
380.7405622001
 20
-2.7221020247
  0
LWPOLYLINE
  5
10B
330
1F
100
AcDbEntity
  8
0
  6
Continuous
 62
     7
370
    25
100
AcDbPolyline
 90
       35
 70
   128
 43
0.0
 10
382.1547757625
 20
-1.9056939129
 10
381.5653222954
 20
-1.4959051718
 10
381.116340326
 20
-1.0305667972
 10
380.8231193966
 20
-0.5255253291
 10
380.6956447944
 20
0.0020206508
 10
380.7382575141
 20
0.534106197
 10
380.9495064305
 20
1.0526117743
 10
381.3221977152
 20
1.5398802973
 10
381.8436398135
 20
1.9793184207
 10
382.4960756402
 20
2.3559616064
 10
383.2572872756
 20
2.6569837223
 10
384.1013525705
 20
2.8721338213
 10
384.9995278937
 20
2.994085225
 10
385.9212269617
 20
3.0186850244
 10
386.8350624182
 20
2.945095503
 10
387.7099146928
 20
2.7758226635
 10
388.5159917405
 20
2.5166308896
 10
389.2258435744
 20
2.1763466462
 10
389.8152970414
 20
1.7665579052
 10
390.2642790109
 20
1.3012195305
 10
390.5574999402
 20
0.7961780625
 10
390.6849745424
 20
0.2686320825
 10
390.6423618228
 20
-0.2634534636
 10
390.4311129064
 20
-0.781959041
 10
390.0584216217
 20
-1.269227564
 10
389.5369795233
 20
-1.7086656874
 10
388.8845436967
 20
-2.085308873
 10
388.1233320613
 20
-2.386330989
 10
387.2792667663
 20
-2.601481088
 10
386.3810914432
 20
-2.7234324917
 10
385.4593923752
 20
-2.7480322911
 10
384.5455569187
 20
-2.6744427696
 10
383.6707046441
 20
-2.5051699302
 10
382.8646275963
 20
-2.2459781563
 10
382.1547757625
 20
-1.9056939129
  0
LWPOLYLINE
  5
10C
330
1F
100
AcDbEntity
  8
0
  6
Continuous
 62
     1
370
    25
100
AcDbPolyline
 90
       65
 70
   128
 43
0.0
 10
301.4277039735
 20
-37.2560908424
 10
302.0529289144
 20
-36.9085778903
 10
303.7828361711
 20
-36.0780210517
 10
305.5901483647
 20
-35.3948292156
 10
307.470300068
 20
-34.8607281838
 10
309.4185418545
 20
-34.477067142
 10
311.4299522964
 20
-34.2448152512
 10
313.4994503964
 20
-34.1645591999
 10
315.6218084225
 20
-34.2365017217
 10
317.7916651144
 20
-34.4604610837
 10
320.0035392256
 20
-34.8358715451
 10
322.2518433702
 20
-35.3617847864
 10
324.5308981368
 20
-36.0368723052
 10
326.8349464352
 20
-36.8594287718
 10
329.1581680395
 20
-37.8273763371
 10
331.4946942903
 20
-38.9382698817
 10
333.8386229195
 20
-40.189303192
 10
336.1840329599
 20
-41.5773160493
 10
338.5249997023
 20
-43.0988022127
 10
340.8556096614
 20
-44.7499182761
 10
343.1699755143
 20
-46.5264933769
 10
345.462250972
 20
-48.4240397323
 10
347.7266455477
 20
-50.4377639756
 10
349.9574391841
 20
-52.5625792645
 10
352.148996703
 20
-54.7931181311
 10
354.2957820398
 20
-57.1237460408
 10
356.3923722285
 20
-59.5485756252
 10
358.4334711003
 20
-62.0614815542
 10
360.4139226624
 20
-64.6561160095
 10
362.3287241221
 20
-67.3259247192
 10
364.1730385248
 20
-70.0641635147
 10
365.9422069723
 20
-72.8639153673
 10
367.6317603915
 20
-75.7181078608
 10
369.2374308239
 20
-78.6195310572
 10
370.7551622066
 20
-81.5608557098
 10
372.1811206184
 20
-84.5346517771
 10
373.5117039646
 20
-87.5334071923
 10
374.7435510761
 20
-90.5495468389
 10
375.8735502004
 20
-93.5754516864
 10
376.8988468614
 20
-96.6034780365
 10
377.8168510709
 20
-99.6259768318
 10
378.6252438706
 20
-102.6353129782
 10
379.3219831901
 20
-105.6238846313
 10
379.9053090053
 20
-108.5841423997
 10
380.3737477848
 20
-111.5086084155
 10
380.7261162114
 20
-114.3898952236
 10
380.9615241719
 20
-117.2207244435
 10
381.0793770054
 20
-119.993945155
 10
381.0793770054
 20
-122.7025519617
 10
380.9615241719
 20
-125.3397026879
 10
380.7261162114
 20
-127.898735662
 10
380.3737477848
 20
-130.3731865445
 10
379.9053090053
 20
-132.7568046578
 10
379.3219831901
 20
-135.0435687757
 10
378.6252438706
 20
-137.2277023335
 10
377.8168510709
 20
-139.3036880202
 10
376.8988468614
 20
-141.266281716
 10
375.8735502004
 20
-143.1105257388
 10
374.7435510761
 20
-144.8317613681
 10
373.5117039646
 20
-146.4256406133
 10
372.1811206184
 20
-147.8881371972
 10
370.7551622066
 20
-149.2155567264
 10
369.2374308239
 20
-150.404546024
 10
367.6317603915
 20
-151.4521015999
 10
367.4222539873
 20
-151.5745905191
  0
LWPOLYLINE
  5
10D
330
1F
100
AcDbEntity
  8
0
  6
Continuous
 62
     1
370
    25
100
AcDbPolyline
 90
       65
 70
   128
 43
0.0
 10
319.1054193851
 20
-27.0509629575
 10
319.7305984441
 20
-26.7034764925
 10
321.4605057007
 20
-25.8729196539
 10
323.2678178944
 20
-25.1897278178
 10
325.1479695977
 20
-24.6556267861
 10
327.0962113842
 20
-24.2719657442
 10
329.1076218261
 20
-24.0397138534
 10
331.177119926
 20
-23.9594578021
 10
333.2994779522
 20
-24.0314003239
 10
335.4693346441
 20
-24.2553596859
 10
337.6812087553
 20
-24.6307701473
 10
339.9295128998
 20
-25.1566833886
 10
342.2085676664
 20
-25.8317709074
 10
344.5126159648
 20
-26.654327374
 10
346.8358375691
 20
-27.6222749393
 10
349.1723638199
 20
-28.7331684839
 10
351.5162924491
 20
-29.9842017942
 10
353.8617024896
 20
-31.3722146516
 10
356.2026692319
 20
-32.8937008149
 10
358.5332791911
 20
-34.5448168783
 10
360.847645044
 20
-36.3213919791
 10
363.1399205017
 20
-38.2189383345
 10
365.4043150773
 20
-40.2326625778
 10
367.6351087137
 20
-42.3574778667
 10
369.8266662326
 20
-44.5880167333
 10
371.9734515695
 20
-46.918644643
 10
374.0700417582
 20
-49.3434742274
 10
376.11114063
 20
-51.8563801565
 10
378.091592192
 20
-54.4510146117
 10
380.0063936517
 20
-57.1208233214
 10
381.8507080545
 20
-59.8590621169
 10
383.619876502
 20
-62.6588139695
 10
385.3094299212
 20
-65.513006463
 10
386.9151003536
 20
-68.4144296595
 10
388.4328317363
 20
-71.355754312
 10
389.858790148
 20
-74.3295503794
 10
391.1893734942
 20
-77.3283057945
 10
392.4212206058
 20
-80.3444454411
 10
393.55121973
 20
-83.3703502886
 10
394.5765163911
 20
-86.3983766387
 10
395.4945206006
 20
-89.4208754341
 10
396.3029134003
 20
-92.4302115804
 10
396.9996527197
 20
-95.4187832335
 10
397.582978535
 20
-98.379041002
 10
398.0514173144
 20
-101.3035070177
 10
398.403785741
 20
-104.1847938258
 10
398.6391937015
 20
-107.0156230458
 10
398.757046535
 20
-109.7888437572
 10
398.757046535
 20
-112.497450564
 10
398.6391937015
 20
-115.1346012902
 10
398.403785741
 20
-117.6936342642
 10
398.0514173144
 20
-120.1680851467
 10
397.582978535
 20
-122.55170326
 10
396.9996527197
 20
-124.8384673779
 10
396.3029134003
 20
-127.0226009357
 10
395.4945206006
 20
-129.0985866225
 10
394.5765163911
 20
-131.0611803182
 10
393.55121973
 20
-132.905424341
 10
392.4212206058
 20
-134.6266599703
 10
391.1893734942
 20
-136.2205392155
 10
389.858790148
 20
-137.6830357994
 10
388.4328317363
 20
-139.0104553286
 10
386.9151003536
 20
-140.1994446262
 10
385.3094299212
 20
-141.2470002021
 10
385.1000557391
 20
-141.3694127918
  0
ENDSEC
  0
SECTION
  2
OBJECTS
  0
DICTIONARY
  5
C
330
0
100
AcDbDictionary
281
     1
  3
ACAD_GROUP
350
D
  3
ACAD_LAYOUT
350
1A
  3
ACAD_MLINESTYLE
350
17
  3
ACAD_PLOTSETTINGS
350
19
  3
ACAD_PLOTSTYLENAME
350
E
  3
ACAD_SCALELIST
350
47
  3
DWGPROPS
350
10E
  0
DICTIONARY
  5
D
102
{ACAD_REACTORS
330
C
102
}
330
C
100
AcDbDictionary
281
     1
  0
DICTIONARY
  5
1A
102
{ACAD_REACTORS
330
C
102
}
330
C
100
AcDbDictionary
281
     1
  3
Layout1
350
1E
  3
Layout2
350
26
  3
Model
350
22
  0
DICTIONARY
  5
17
102
{ACAD_REACTORS
330
C
102
}
330
C
100
AcDbDictionary
281
     1
  3
Standard
350
18
  0
DICTIONARY
  5
19
102
{ACAD_REACTORS
330
C
102
}
330
C
100
AcDbDictionary
281
     1
  0
ACDBDICTIONARYWDFLT
  5
E
102
{ACAD_REACTORS
330
C
102
}
330
C
100
AcDbDictionary
281
     1
  3
Normal
350
F
100
AcDbDictionaryWithDefault
340
F
  0
DICTIONARY
  5
47
102
{ACAD_REACTORS
330
C
102
}
330
C
100
AcDbDictionary
281
     1
  3
A0
350
48
  3
A1
350
49
  3
A2
350
4A
  3
A3
350
4B
  3
A4
350
4C
  3
A5
350
4D
  3
A6
350
4E
  3
A7
350
4F
  3
A8
350
50
  3
A9
350
51
  3
B0
350
52
  3
B1
350
53
  3
B2
350
54
  3
B3
350
55
  3
B4
350
56
  3
B5
350
57
  3
B6
350
58
  3
B7
350
59
  3
B8
350
5A
  3
B9
350
5B
  3
C0
350
5C
  3
C1
350
5D
  3
C2
350
5E
  3
C3
350
5F
  3
C4
350
60
  3
C5
350
61
  3
C6
350
62
  3
C7
350
63
  3
C8
350
64
  3
C9
350
65
  3
D0
350
66
  3
D1
350
67
  3
D2
350
68
  0
XRECORD
  5
10E
102
{ACAD_REACTORS
330
C
102
}
330
C
100
AcDbXrecord
280
     1
  1
DWGPROPS COOKIE
  2

  3

  4

  6

  7

  8
b.kav
  9

300
=
301
=
302
=
303
=
304
=
305
=
306
=
307
=
308
=
309
=
 40
0.0
 41
2460616.541834699
 42
2460616.541834884
  1

 90
        0
  0
LAYOUT
  5
1E
102
{ACAD_REACTORS
330
1A
102
}
330
1A
100
AcDbPlotSettings
  1

  2
none_device
  4

  6

 40
0.0
 41
0.0
 42
0.0
 43
0.0
 44
0.0
 45
0.0
 46
0.0
 47
0.0
 48
0.0
 49
0.0
140
0.0
141
0.0
142
1.0
143
1.0
 70
   688
 72
     1
 73
     0
 74
     5
  7

 75
    16
147
1.0
148
0.0
149
0.0
100
AcDbLayout
  1
Layout1
 70
     1
 71
     1
 10
0.0
 20
0.0
 11
420.0
 21
297.0
 12
0.0
 22
0.0
 32
0.0
 14
1.0000000000E+20
 24
1.0000000000E+20
 34
1.0000000000E+20
 15
-1.0000000000E+20
 25
-1.0000000000E+20
 35
-1.0000000000E+20
146
0.0
 13
0.0
 23
0.0
 33
0.0
 16
1.0
 26
0.0
 36
0.0
 17
0.0
 27
1.0
 37
0.0
 76
     0
330
1B
  0
LAYOUT
  5
26
102
{ACAD_REACTORS
330
1A
102
}
330
1A
100
AcDbPlotSettings
  1

  2
none_device
  4

  6

 40
0.0
 41
0.0
 42
0.0
 43
0.0
 44
0.0
 45
0.0
 46
0.0
 47
0.0
 48
0.0
 49
0.0
140
0.0
141
0.0
142
1.0
143
1.0
 70
   688
 72
     1
 73
     0
 74
     5
  7

 75
    16
147
1.0
148
0.0
149
0.0
100
AcDbLayout
  1
Layout2
 70
     1
 71
     2
 10
0.0
 20
0.0
 11
0.0
 21
0.0
 12
0.0
 22
0.0
 32
0.0
 14
0.0
 24
0.0
 34
0.0
 15
0.0
 25
0.0
 35
0.0
146
0.0
 13
0.0
 23
0.0
 33
0.0
 16
1.0
 26
0.0
 36
0.0
 17
0.0
 27
1.0
 37
0.0
 76
     0
330
23
  0
LAYOUT
  5
22
102
{ACAD_REACTORS
330
1A
102
}
330
1A
100
AcDbPlotSettings
  1

  2
none_device
  4
Letter_(8.50_x_11.00_Inches)
  6

 40
6.35
 41
6.35
 42
6.35000508
 43
6.35000508
 44
215.9
 45
279.4
 46
0.0
 47
0.0
 48
0.0
 49
0.0
140
0.0
141
0.0
142
1.0
143
1.0
 70
  1712
 72
     1
 73
     0
 74
     0
  7

 75
     0
147
1.0
148
0.0
149
0.0
100
AcDbLayout
  1
Model
 70
     1
 71
     0
 10
0.0
 20
0.0
 11
279.4
 21
215.9
 12
0.0
 22
0.0
 32
0.0
 14
0.0
 24
0.0
 34
0.0
 15
279.4
 25
215.9
 35
0.0
146
0.0
 13
0.0
 23
0.0
 33
0.0
 16
1.0
 26
0.0
 36
0.0
 17
0.0
 27
1.0
 37
0.0
 76
     0
330
1F
331
29
  0
MLINESTYLE
  5
18
102
{ACAD_REACTORS
330
17
102
}
330
17
100
AcDbMlineStyle
  2
Standard
 70
     0
  3

 62
   256
 51
90.0
 52
90.0
 71
     2
 49
0.5
 62
   256
  6
BYLAYER
 49
-0.5
 62
   256
  6
BYLAYER
  0
ACDBPLACEHOLDER
  5
F
102
{ACAD_REACTORS
330
E
102
}
330
E
  0
SCALE
  5
48
102
{ACAD_REACTORS
330
47
102
}
330
47
100
AcDbScale
 70
     0
300
1:1
140
1.0
141
1.0
290
     1
  0
SCALE
  5
49
102
{ACAD_REACTORS
330
47
102
}
330
47
100
AcDbScale
 70
     0
300
1:2
140
1.0
141
2.0
290
     0
  0
SCALE
  5
4A
102
{ACAD_REACTORS
330
47
102
}
330
47
100
AcDbScale
 70
     0
300
1:4
140
1.0
141
4.0
290
     0
  0
SCALE
  5
4B
102
{ACAD_REACTORS
330
47
102
}
330
47
100
AcDbScale
 70
     0
300
1:5
140
1.0
141
5.0
290
     0
  0
SCALE
  5
4C
102
{ACAD_REACTORS
330
47
102
}
330
47
100
AcDbScale
 70
     0
300
1:8
140
1.0
141
8.0
290
     0
  0
SCALE
  5
4D
102
{ACAD_REACTORS
330
47
102
}
330
47
100
AcDbScale
 70
     0
300
1:10
140
1.0
141
10.0
290
     0
  0
SCALE
  5
4E
102
{ACAD_REACTORS
330
47
102
}
330
47
100
AcDbScale
 70
     0
300
1:16
140
1.0
141
16.0
290
     0
  0
SCALE
  5
4F
102
{ACAD_REACTORS
330
47
102
}
330
47
100
AcDbScale
 70
     0
300
1:20
140
1.0
141
20.0
290
     0
  0
SCALE
  5
50
102
{ACAD_REACTORS
330
47
102
}
330
47
100
AcDbScale
 70
     0
300
1:30
140
1.0
141
30.0
290
     0
  0
SCALE
  5
51
102
{ACAD_REACTORS
330
47
102
}
330
47
100
AcDbScale
 70
     0
300
1:40
140
1.0
141
40.0
290
     0
  0
SCALE
  5
52
102
{ACAD_REACTORS
330
47
102
}
330
47
100
AcDbScale
 70
     0
300
1:50
140
1.0
141
50.0
290
     0
  0
SCALE
  5
53
102
{ACAD_REACTORS
330
47
102
}
330
47
100
AcDbScale
 70
     0
300
1:100
140
1.0
141
100.0
290
     0
  0
SCALE
  5
54
102
{ACAD_REACTORS
330
47
102
}
330
47
100
AcDbScale
 70
     0
300
2:1
140
2.0
141
1.0
290
     0
  0
SCALE
  5
55
102
{ACAD_REACTORS
330
47
102
}
330
47
100
AcDbScale
 70
     0
300
4:1
140
4.0
141
1.0
290
     0
  0
SCALE
  5
56
102
{ACAD_REACTORS
330
47
102
}
330
47
100
AcDbScale
 70
     0
300
8:1
140
8.0
141
1.0
290
     0
  0
SCALE
  5
57
102
{ACAD_REACTORS
330
47
102
}
330
47
100
AcDbScale
 70
     0
300
10:1
140
10.0
141
1.0
290
     0
  0
SCALE
  5
58
102
{ACAD_REACTORS
330
47
102
}
330
47
100
AcDbScale
 70
     0
300
100:1
140
100.0
141
1.0
290
     0
  0
SCALE
  5
59
102
{ACAD_REACTORS
330
47
102
}
330
47
100
AcDbScale
 70
     0
300
1/128" = 1'-0"
140
0.0078125
141
12.0
290
     0
  0
SCALE
  5
5A
102
{ACAD_REACTORS
330
47
102
}
330
47
100
AcDbScale
 70
     0
300
1/64" = 1'-0"
140
0.015625
141
12.0
290
     0
  0
SCALE
  5
5B
102
{ACAD_REACTORS
330
47
102
}
330
47
100
AcDbScale
 70
     0
300
1/32" = 1'-0"
140
0.03125
141
12.0
290
     0
  0
SCALE
  5
5C
102
{ACAD_REACTORS
330
47
102
}
330
47
100
AcDbScale
 70
     0
300
1/16" = 1'-0"
140
0.0625
141
12.0
290
     0
  0
SCALE
  5
5D
102
{ACAD_REACTORS
330
47
102
}
330
47
100
AcDbScale
 70
     0
300
3/32" = 1'-0"
140
0.09375
141
12.0
290
     0
  0
SCALE
  5
5E
102
{ACAD_REACTORS
330
47
102
}
330
47
100
AcDbScale
 70
     0
300
1/8" = 1'-0"
140
0.125
141
12.0
290
     0
  0
SCALE
  5
5F
102
{ACAD_REACTORS
330
47
102
}
330
47
100
AcDbScale
 70
     0
300
3/16" = 1'-0"
140
0.1875
141
12.0
290
     0
  0
SCALE
  5
60
102
{ACAD_REACTORS
330
47
102
}
330
47
100
AcDbScale
 70
     0
300
1/4" = 1'-0"
140
0.25
141
12.0
290
     0
  0
SCALE
  5
61
102
{ACAD_REACTORS
330
47
102
}
330
47
100
AcDbScale
 70
     0
300
3/8" = 1'-0"
140
0.375
141
12.0
290
     0
  0
SCALE
  5
62
102
{ACAD_REACTORS
330
47
102
}
330
47
100
AcDbScale
 70
     0
300
1/2" = 1'-0"
140
0.5
141
12.0
290
     0
  0
SCALE
  5
63
102
{ACAD_REACTORS
330
47
102
}
330
47
100
AcDbScale
 70
     0
300
3/4" = 1'-0"
140
0.75
141
12.0
290
     0
  0
SCALE
  5
64
102
{ACAD_REACTORS
330
47
102
}
330
47
100
AcDbScale
 70
     0
300
1" = 1'-0"
140
1.0
141
12.0
290
     0
  0
SCALE
  5
65
102
{ACAD_REACTORS
330
47
102
}
330
47
100
AcDbScale
 70
     0
300
1-1/2" = 1'-0"
140
1.5
141
12.0
290
     0
  0
SCALE
  5
66
102
{ACAD_REACTORS
330
47
102
}
330
47
100
AcDbScale
 70
     0
300
3" = 1'-0"
140
3.0
141
12.0
290
     0
  0
SCALE
  5
67
102
{ACAD_REACTORS
330
47
102
}
330
47
100
AcDbScale
 70
     0
300
6" = 1'-0"
140
6.0
141
12.0
290
     0
  0
SCALE
  5
68
102
{ACAD_REACTORS
330
47
102
}
330
47
100
AcDbScale
 70
     0
300
1'-0" = 1'-0"
140
12.0
141
12.0
290
     0
  0
ENDSEC
  0
EOF
